  0
SECTION
  2
HEADER
  9
$ACADVER
  1
AC1015
  9
$ACADMAINTVER
 70
    20
  9
$DWGCODEPAGE
  3
ANSI_1251
  9
$INSBASE
 10
0.0
 20
0.0
 30
0.0
  9
$EXTMIN
 10
3.694619113592934
 20
200.4466053172719
 30
0.0
  9
$EXTMAX
 10
365.767292245703
 20
265.0754029954413
 30
0.0
  9
$LIMMIN
 10
0.0
 20
0.0
  9
$LIMMAX
 10
420.0
 20
297.0
  9
$ORTHOMODE
 70
     0
  9
$REGENMODE
 70
     1
  9
$FILLMODE
 70
     1
  9
$QTEXTMODE
 70
     0
  9
$MIRRTEXT
 70
     1
  9
$LTSCALE
 40
1.0
  9
$ATTMODE
 70
     1
  9
$TEXTSIZE
 40
2.5
  9
$TRACEWID
 40
1.0
  9
$TEXTSTYLE
  7
LPSTYLE1
  9
$CLAYER
  8
0
  9
$CELTYPE
  6
ByLayer
  9
$CECOLOR
 62
   256
  9
$CELTSCALE
 40
1.0
  9
$DISPSILH
 70
     0
  9
$DIMSCALE
 40
1.0
  9
$DIMASZ
 40
2.5
  9
$DIMEXO
 40
0.625
  9
$DIMDLI
 40
3.75
  9
$DIMRND
 40
0.0
  9
$DIMDLE
 40
0.0
  9
$DIMEXE
 40
1.25
  9
$DIMTP
 40
0.0
  9
$DIMTM
 40
0.0
  9
$DIMTXT
 40
2.5
  9
$DIMCEN
 40
2.5
  9
$DIMTSZ
 40
0.0
  9
$DIMTOL
 70
     0
  9
$DIMLIM
 70
     0
  9
$DIMTIH
 70
     0
  9
$DIMTOH
 70
     0
  9
$DIMSE1
 70
     0
  9
$DIMSE2
 70
     0
  9
$DIMTAD
 70
     1
  9
$DIMZIN
 70
     8
  9
$DIMBLK
  1

  9
$DIMASO
 70
     1
  9
$DIMSHO
 70
     1
  9
$DIMPOST
  1

  9
$DIMAPOST
  1

  9
$DIMALT
 70
     0
  9
$DIMALTD
 70
     3
  9
$DIMALTF
 40
0.03937007874016
  9
$DIMLFAC
 40
1.0
  9
$DIMTOFL
 70
     1
  9
$DIMTVP
 40
0.0
  9
$DIMTIX
 70
     0
  9
$DIMSOXD
 70
     0
  9
$DIMSAH
 70
     0
  9
$DIMBLK1
  1

  9
$DIMBLK2
  1

  9
$DIMSTYLE
  2
ISO-25
  9
$DIMCLRD
 70
     0
  9
$DIMCLRE
 70
     0
  9
$DIMCLRT
 70
     0
  9
$DIMTFAC
 40
1.0
  9
$DIMGAP
 40
0.625
  9
$DIMJUST
 70
     0
  9
$DIMSD1
 70
     0
  9
$DIMSD2
 70
     0
  9
$DIMTOLJ
 70
     0
  9
$DIMTZIN
 70
     8
  9
$DIMALTZ
 70
     0
  9
$DIMALTTZ
 70
     0
  9
$DIMUPT
 70
     0
  9
$DIMDEC
 70
     2
  9
$DIMTDEC
 70
     2
  9
$DIMALTU
 70
     2
  9
$DIMALTTD
 70
     3
  9
$DIMTXSTY
  7
Standard
  9
$DIMAUNIT
 70
     0
  9
$DIMADEC
 70
     0
  9
$DIMALTRND
 40
0.0
  9
$DIMAZIN
 70
     0
  9
$DIMDSEP
 70
    44
  9
$DIMATFIT
 70
     3
  9
$DIMFRAC
 70
     0
  9
$DIMLDRBLK
  1

  9
$DIMLUNIT
 70
     2
  9
$DIMLWD
 70
    -2
  9
$DIMLWE
 70
    -2
  9
$DIMTMOVE
 70
     0
  9
$LUNITS
 70
     2
  9
$LUPREC
 70
     4
  9
$SKETCHINC
 40
1.0
  9
$FILLETRAD
 40
10.0
  9
$AUNITS
 70
     0
  9
$AUPREC
 70
     0
  9
$MENU
  1
.
  9
$ELEVATION
 40
0.0
  9
$PELEVATION
 40
0.0
  9
$THICKNESS
 40
0.0
  9
$LIMCHECK
 70
     0
  9
$CHAMFERA
 40
10.0
  9
$CHAMFERB
 40
10.0
  9
$CHAMFERC
 40
20.0
  9
$CHAMFERD
 40
0.0
  9
$SKPOLY
 70
     0
  9
$TDCREATE
 40
2455169.485505556
  9
$TDUCREATE
 40
2455169.318838889
  9
$TDUPDATE
 40
2455288.743668565
  9
$TDUUPDATE
 40
2455288.577001898
  9
$TDINDWG
 40
0.0028606366
  9
$TDUSRTIMER
 40
0.0028606366
  9
$USRTIMER
 70
     1
  9
$ANGBASE
 50
0.0
  9
$ANGDIR
 70
     0
  9
$PDMODE
 70
     0
  9
$PDSIZE
 40
0.0
  9
$PLINEWID
 40
0.0
  9
$SPLFRAME
 70
     0
  9
$SPLINETYPE
 70
     6
  9
$SPLINESEGS
 70
     8
  9
$HANDSEED
  5
403
  9
$SURFTAB1
 70
     6
  9
$SURFTAB2
 70
     6
  9
$SURFTYPE
 70
     6
  9
$SURFU
 70
     6
  9
$SURFV
 70
     6
  9
$UCSBASE
  2

  9
$UCSNAME
  2

  9
$UCSORG
 10
0.0
 20
0.0
 30
0.0
  9
$UCSXDIR
 10
1.0
 20
0.0
 30
0.0
  9
$UCSYDIR
 10
0.0
 20
1.0
 30
0.0
  9
$UCSORTHOREF
  2

  9
$UCSORTHOVIEW
 70
     0
  9
$UCSORGTOP
 10
0.0
 20
0.0
 30
0.0
  9
$UCSORGBOTTOM
 10
0.0
 20
0.0
 30
0.0
  9
$UCSORGLEFT
 10
0.0
 20
0.0
 30
0.0
  9
$UCSORGRIGHT
 10
0.0
 20
0.0
 30
0.0
  9
$UCSORGFRONT
 10
0.0
 20
0.0
 30
0.0
  9
$UCSORGBACK
 10
0.0
 20
0.0
 30
0.0
  9
$PUCSBASE
  2

  9
$PUCSNAME
  2

  9
$PUCSORG
 10
0.0
 20
0.0
 30
0.0
  9
$PUCSXDIR
 10
1.0
 20
0.0
 30
0.0
  9
$PUCSYDIR
 10
0.0
 20
1.0
 30
0.0
  9
$PUCSORTHOREF
  2

  9
$PUCSORTHOVIEW
 70
     0
  9
$PUCSORGTOP
 10
0.0
 20
0.0
 30
0.0
  9
$PUCSORGBOTTOM
 10
0.0
 20
0.0
 30
0.0
  9
$PUCSORGLEFT
 10
0.0
 20
0.0
 30
0.0
  9
$PUCSORGRIGHT
 10
0.0
 20
0.0
 30
0.0
  9
$PUCSORGFRONT
 10
0.0
 20
0.0
 30
0.0
  9
$PUCSORGBACK
 10
0.0
 20
0.0
 30
0.0
  9
$USERI1
 70
     0
  9
$USERI2
 70
     0
  9
$USERI3
 70
     0
  9
$USERI4
 70
     0
  9
$USERI5
 70
     0
  9
$USERR1
 40
0.0
  9
$USERR2
 40
0.0
  9
$USERR3
 40
0.0
  9
$USERR4
 40
0.0
  9
$USERR5
 40
0.0
  9
$WORLDVIEW
 70
     1
  9
$SHADEDGE
 70
     3
  9
$SHADEDIF
 70
    70
  9
$TILEMODE
 70
     1
  9
$MAXACTVP
 70
    64
  9
$PINSBASE
 10
0.0
 20
0.0
 30
0.0
  9
$PLIMCHECK
 70
     0
  9
$PEXTMIN
 10
0.0
 20
0.0
 30
0.0
  9
$PEXTMAX
 10
200.0
 20
280.0
 30
0.0
  9
$PLIMMIN
 10
-5.027069091796875
 20
-5.027083396911621
  9
$PLIMMAX
 10
291.9835815429688
 20
204.8615732192993
  9
$UNITMODE
 70
     0
  9
$VISRETAIN
 70
     1
  9
$PLINEGEN
 70
     0
  9
$PSLTSCALE
 70
     1
  9
$TREEDEPTH
 70
  3020
  9
$CMLSTYLE
  2
Standard
  9
$CMLJUST
 70
     0
  9
$CMLSCALE
 40
20.0
  9
$PROXYGRAPHICS
 70
     1
  9
$MEASUREMENT
 70
     1
  9
$CELWEIGHT
370
    -1
  9
$ENDCAPS
280
     0
  9
$JOINSTYLE
280
     0
  9
$LWDISPLAY
290
     0
  9
$INSUNITS
 70
     4
  9
$HYPERLINKBASE
  1

  9
$STYLESHEET
  1

  9
$XEDIT
290
     1
  9
$CEPSNTYPE
380
     0
  9
$PSTYLEMODE
290
     1
  9
$FINGERPRINTGUID
  2
{63E84C8B-902F-4810-A4D1-AC2E7499F453}
  9
$VERSIONGUID
  2
{B959A60D-5716-4E95-88A7-84CE718B1579}
  9
$EXTNAMES
290
     1
  9
$PSVPSCALE
 40
0.0
  9
$OLESTARTUP
290
     0
  0
ENDSEC
  0
SECTION
  2
CLASSES
  0
CLASS
  1
ACDBDICTIONARYWDFLT
  2
AcDbDictionaryWithDefault
  3
ObjectDBX Classes
 90
        0
280
     0
281
     0
  0
CLASS
  1
ACDBPLACEHOLDER
  2
AcDbPlaceHolder
  3
ObjectDBX Classes
 90
        0
280
     0
281
     0
  0
CLASS
  1
LAYOUT
  2
AcDbLayout
  3
ObjectDBX Classes
 90
        0
280
     0
281
     0
  0
CLASS
  1
DICTIONARYVAR
  2
AcDbDictionaryVar
  3
ObjectDBX Classes
 90
        0
280
     0
281
     0
  0
CLASS
  1
TABLESTYLE
  2
AcDbTableStyle
  3
ObjectDBX Classes
 90
     2047
280
     0
281
     0
  0
ENDSEC
  0
SECTION
  2
TABLES
  0
TABLE
  2
VPORT
  5
8C
330
0
100
AcDbSymbolTable
 70
     2
  0
VPORT
  5
3FD
330
8C
100
AcDbSymbolTableRecord
100
AcDbViewportTableRecord
  2
*Active
 70
     0
 10
0.0
 20
0.0
 11
1.0
 21
1.0
 12
309.1548115586217
 22
322.9383597645067
 13
0.0
 23
0.0
 14
10.0
 24
10.0
 15
10.0
 25
10.0
 16
0.0
 26
0.0
 36
1.0
 17
0.0
 27
0.0
 37
0.0
 40
636.0641070487659
 41
1.45359477124183
 42
50.0
 43
0.0
 44
0.0
 50
0.0
 51
0.0
 71
     0
 72
   100
 73
     1
 74
     3
 75
     0
 76
     0
 77
     0
 78
     0
281
     0
 65
     1
110
0.0
120
0.0
130
0.0
111
1.0
121
0.0
131
0.0
112
0.0
122
1.0
132
0.0
 79
     0
146
0.0
  0
ENDTAB
  0
TABLE
  2
LTYPE
  5
87
330
0
100
AcDbSymbolTable
 70
     1
  0
LTYPE
  5
88
330
87
100
AcDbSymbolTableRecord
100
AcDbLinetypeTableRecord
  2
ByBlock
 70
     0
  3

 72
    65
 73
     0
 40
0.0
  0
LTYPE
  5
89
330
87
100
AcDbSymbolTableRecord
100
AcDbLinetypeTableRecord
  2
ByLayer
 70
     0
  3

 72
    65
 73
     0
 40
0.0
  0
LTYPE
  5
8
330
87
100
AcDbSymbolTableRecord
100
AcDbLinetypeTableRecord
  2
Continuous
 70
     0
  3
Solid line
 72
    65
 73
     0
 40
0.0
  0
ENDTAB
  0
TABLE
  2
LAYER
  5
10
102
{ACAD_XDICTIONARY
360
11
102
}
330
0
100
AcDbSymbolTable
 70
     5
  0
LAYER
  5
4
330
10
100
AcDbSymbolTableRecord
100
AcDbLayerTableRecord
  2
0
 70
     0
 62
     7
  6
Continuous
370
    -3
390
5
  0
LAYER
  5
1FC
330
10
100
AcDbSymbolTableRecord
100
AcDbLayerTableRecord
  2
KCF_071ffsf01
 70
     0
 62
     1
  6
Continuous
370
    -3
390
5
  0
LAYER
  5
99
330
10
100
AcDbSymbolTableRecord
100
AcDbLayerTableRecord
  2
VIEWPORT
 70
     0
 62
     7
  6
Continuous
370
    -3
390
5
  0
LAYER
  5
3B0
330
10
100
AcDbSymbolTableRecord
100
AcDbLayerTableRecord
  2
VIEWMRK
 70
     0
 62
     7
  6
Continuous
370
    -3
390
5
  0
LAYER
  5
3B1
330
10
100
AcDbSymbolTableRecord
100
AcDbLayerTableRecord
  2
VIEWBRIDGE
 70
     0
 62
     7
  6
Continuous
370
    -3
390
5
  0
ENDTAB
  0
TABLE
  2
STYLE
  5
84
330
0
100
AcDbSymbolTable
 70
     3
  0
STYLE
  5
85
330
84
100
AcDbSymbolTableRecord
100
AcDbTextStyleTableRecord
  2
Standard
 70
     0
 40
0.0
 41
1.0
 50
0.0
 71
     0
 42
2.5
  3
romanc.shx
  4

  0
STYLE
  5
95
330
84
100
AcDbSymbolTableRecord
100
AcDbTextStyleTableRecord
  2
LPSTYLE1
 70
     0
 40
0.0
 41
1.0
 50
0.0
 71
     0
 42
2.5
  3
BauhausLightCTT Regular.TTF
  4

1001
ACAD
1000
BauhausLightCTT
1071
      256
  0
STYLE
  5
3AF
330
84
100
AcDbSymbolTableRecord
100
AcDbTextStyleTableRecord
  2
LPSTYLE_CP
 70
     0
 40
0.0
 41
1.0
 50
0.0
 71
     0
 42
2.5
  3
BauhausLightCTT Regular.TTF
  4

1001
ACAD
1000
BauhausLightCTT
1071
      256
  0
ENDTAB
  0
TABLE
  2
VIEW
  5
8A
330
0
100
AcDbSymbolTable
 70
     0
  0
ENDTAB
  0
TABLE
  2
UCS
  5
8B
330
0
100
AcDbSymbolTable
 70
     0
  0
ENDTAB
  0
TABLE
  2
APPID
  5
8E
330
0
100
AcDbSymbolTable
 70
     4
  0
APPID
  5
8F
330
8E
100
AcDbSymbolTableRecord
100
AcDbRegAppTableRecord
  2
ACAD
 70
     0
  0
APPID
  5
1FD
330
8E
100
AcDbSymbolTableRecord
100
AcDbRegAppTableRecord
  2
LpCAD
 70
     0
  0
APPID
  5
B5
330
8E
100
AcDbSymbolTableRecord
100
AcDbRegAppTableRecord
  2
EugeneTools
 70
     0
  0
APPID
  5
3F9
330
8E
100
AcDbSymbolTableRecord
100
AcDbRegAppTableRecord
  2
DCO15
 70
     0
  0
ENDTAB
  0
TABLE
  2
DIMSTYLE
  5
90
330
0
100
AcDbSymbolTable
 70
     1
100
AcDbDimStyleTable
 71
     0
  0
DIMSTYLE
105
97
330
90
100
AcDbSymbolTableRecord
100
AcDbDimStyleTableRecord
  2
ISO-25
 70
     0
 41
2.5
 42
0.625
 43
3.75
 44
1.25
 73
     0
 74
     0
 77
     1
 78
     8
140
2.5
141
2.5
143
0.03937007874016
147
0.625
171
     3
172
     1
271
     2
272
     2
274
     3
278
    44
283
     0
284
     8
340
85
  0
ENDTAB
  0
TABLE
  2
BLOCK_RECORD
  5
1
330
0
100
AcDbSymbolTable
 70
    11
  0
BLOCK_RECORD
  5
2
330
1
100
AcDbSymbolTableRecord
100
AcDbBlockTableRecord
  2
*Model_Space
340
A
  0
BLOCK_RECORD
  5
C
330
1
100
AcDbSymbolTableRecord
100
AcDbBlockTableRecord
  2
*Paper_Space
340
F
  0
BLOCK_RECORD
  5
3B2
330
1
100
AcDbSymbolTableRecord
100
AcDbBlockTableRecord
  2
MarkerAim
340
0
  0
BLOCK_RECORD
  5
3B6
330
1
100
AcDbSymbolTableRecord
100
AcDbBlockTableRecord
  2
MarkerPoint
340
0
  0
BLOCK_RECORD
  5
3BC
330
1
100
AcDbSymbolTableRecord
100
AcDbBlockTableRecord
  2
MarkerBridge
340
0
  0
BLOCK_RECORD
  5
3C0
330
1
100
AcDbSymbolTableRecord
100
AcDbBlockTableRecord
  2
MarkerBridgeSmall
340
0
  0
BLOCK_RECORD
  5
3C4
330
1
100
AcDbSymbolTableRecord
100
AcDbBlockTableRecord
  2
MarkerBridgeLarge
340
0
  0
BLOCK_RECORD
  5
3C8
330
1
100
AcDbSymbolTableRecord
100
AcDbBlockTableRecord
  2
Marker_CF_
340
0
  0
BLOCK_RECORD
  5
3CC
330
1
100
AcDbSymbolTableRecord
100
AcDbBlockTableRecord
  2
Marker_SFL
340
0
  0
BLOCK_RECORD
  5
3D0
330
1
100
AcDbSymbolTableRecord
100
AcDbBlockTableRecord
  2
Marker_SFR
340
0
  0
BLOCK_RECORD
  5
3D4
330
1
100
AcDbSymbolTableRecord
100
AcDbBlockTableRecord
  2
Marker_BL_
340
0
  0
BLOCK_RECORD
  5
3DD
330
1
100
AcDbSymbolTableRecord
100
AcDbBlockTableRecord
  2
Marker_BR_
340
0
  0
BLOCK_RECORD
  5
3E6
330
1
100
AcDbSymbolTableRecord
100
AcDbBlockTableRecord
  2
LpDocKernel
340
0
1001
LpCAD
1000
Boards=sf01;
1000
LstVal01=1;
  0
ENDTAB
  0
ENDSEC
  0
SECTION
  2
BLOCKS
  0
BLOCK
  5
3
330
2
100
AcDbEntity
  8
0
100
AcDbBlockBegin
  2
*Model_Space
 70
     0
 10
0.0
 20
0.0
 30
0.0
  3
*Model_Space
  1

  0
ENDBLK
  5
9
330
2
100
AcDbEntity
  8
0
100
AcDbBlockEnd
  0
BLOCK
  5
D
330
C
100
AcDbEntity
 67
     1
  8
0
100
AcDbBlockBegin
  2
*Paper_Space
 70
     0
 10
0.0
 20
0.0
 30
0.0
  3
*Paper_Space
  1

  0
ENDBLK
  5
E
330
C
100
AcDbEntity
 67
     1
  8
0
100
AcDbBlockEnd
  0
BLOCK
  5
3B3
330
3B2
100
AcDbEntity
  8
0
100
AcDbBlockBegin
  2
MarkerAim
 70
     0
 10
0.0
 20
0.0
 30
0.0
  3
MarkerAim
  1

  0
LWPOLYLINE
  5
3B5
330
3B2
100
AcDbEntity
  8
VIEWMRK
 62
     2
100
AcDbPolyline
 90
        4
 70
     1
 43
0.0
 10
-0.5
 20
-0.5
 10
0.5
 20
-0.5
 10
0.5
 20
0.5
 10
-0.5
 20
0.5
  0
ENDBLK
  5
3B4
330
3B2
100
AcDbEntity
  8
0
100
AcDbBlockEnd
  0
BLOCK
  5
3B7
330
3B6
100
AcDbEntity
  8
0
100
AcDbBlockBegin
  2
MarkerPoint
 70
     0
 10
0.0
 20
0.0
 30
0.0
  3
MarkerPoint
  1

  0
CIRCLE
  5
3B9
330
3B6
100
AcDbEntity
  8
VIEWMRK
 62
     2
100
AcDbCircle
 10
0.0
 20
0.0
 30
0.0
 40
0.5
  0
LINE
  5
3BA
330
3B6
100
AcDbEntity
  8
VIEWMRK
 62
     2
100
AcDbLine
 10
-0.3535533905932739
 20
-0.3535533905932739
 30
0.0
 11
0.3535533905932739
 21
0.3535533905932739
 31
0.0
  0
LINE
  5
3BB
330
3B6
100
AcDbEntity
  8
VIEWMRK
 62
     2
100
AcDbLine
 10
-0.3535533905932739
 20
0.3535533905932739
 30
0.0
 11
0.3535533905932739
 21
-0.3535533905932739
 31
0.0
  0
ENDBLK
  5
3B8
330
3B6
100
AcDbEntity
  8
0
100
AcDbBlockEnd
  0
BLOCK
  5
3BD
330
3BC
100
AcDbEntity
  8
0
100
AcDbBlockBegin
  2
MarkerBridge
 70
     0
 10
0.0
 20
0.0
 30
0.0
  3
MarkerBridge
  1

  0
LWPOLYLINE
  5
3BF
330
3BC
100
AcDbEntity
  8
VIEWBRIDGE
 62
     0
100
AcDbPolyline
 90
        4
 70
     1
 43
0.0
 10
-0.5
 20
0.5
 10
-0.5
 20
-0.5
 10
0.5
 20
0.5
 10
0.5
 20
-0.5
  0
ENDBLK
  5
3BE
330
3BC
100
AcDbEntity
  8
0
100
AcDbBlockEnd
  0
BLOCK
  5
3C1
330
3C0
100
AcDbEntity
  8
0
100
AcDbBlockBegin
  2
MarkerBridgeSmall
 70
     0
 10
0.0
 20
0.0
 30
0.0
  3
MarkerBridgeSmall
  1

  0
LWPOLYLINE
  5
3C3
330
3C0
100
AcDbEntity
  8
VIEWBRIDGE
 62
     0
100
AcDbPolyline
 90
        4
 70
     1
 43
0.0
 10
-0.5
 20
-0.5
 10
0.5
 20
-0.5
 10
0.5
 20
0.5
 10
-0.5
 20
0.5
  0
ENDBLK
  5
3C2
330
3C0
100
AcDbEntity
  8
0
100
AcDbBlockEnd
  0
BLOCK
  5
3C5
330
3C4
100
AcDbEntity
  8
0
100
AcDbBlockBegin
  2
MarkerBridgeLarge
 70
     0
 10
0.0
 20
0.0
 30
0.0
  3
MarkerBridgeLarge
  1

  0
LWPOLYLINE
  5
3C7
330
3C4
100
AcDbEntity
  8
VIEWBRIDGE
 62
     0
100
AcDbPolyline
 90
        8
 70
     1
 43
0.0
 10
-0.5
 20
-0.5
 10
-0.1
 20
-0.5
 10
0.1
 20
0.5
 10
0.5
 20
0.5
 10
0.5
 20
-0.5
 10
0.1
 20
-0.5
 10
-0.1
 20
0.5
 10
-0.5
 20
0.5
  0
ENDBLK
  5
3C6
330
3C4
100
AcDbEntity
  8
0
100
AcDbBlockEnd
  0
BLOCK
  5
3C9
330
3C8
100
AcDbEntity
  8
0
100
AcDbBlockBegin
  2
Marker_CF_
 70
     0
 10
0.0
 20
0.0
 30
0.0
  3
Marker_CF_
  1

  0
LWPOLYLINE
  5
3CB
330
3C8
100
AcDbEntity
  8
VIEWMRK
 62
     0
100
AcDbPolyline
 90
        5
 70
     1
 43
0.0
 10
0.0
 20
-0.5
 10
0.3
 20
-0.5
 10
1.0
 20
0.0
 10
0.3
 20
0.5
 10
0.0
 20
0.5
  0
ENDBLK
  5
3CA
330
3C8
100
AcDbEntity
  8
0
100
AcDbBlockEnd
  0
BLOCK
  5
3CD
330
3CC
100
AcDbEntity
  8
0
100
AcDbBlockBegin
  2
Marker_SFL
 70
     0
 10
0.0
 20
0.0
 30
0.0
  3
Marker_SFL
  1

  0
LWPOLYLINE
  5
3CF
330
3CC
100
AcDbEntity
  8
VIEWMRK
 62
     0
100
AcDbPolyline
 90
        5
 70
     1
 43
0.0
 10
0.2
 20
0.0
 10
0.2
 20
0.8
 10
0.0
 20
1.0
 10
-0.8
 20
0.2
 10
-0.8
 20
0.0
  0
ENDBLK
  5
3CE
330
3CC
100
AcDbEntity
  8
0
100
AcDbBlockEnd
  0
BLOCK
  5
3D1
330
3D0
100
AcDbEntity
  8
0
100
AcDbBlockBegin
  2
Marker_SFR
 70
     0
 10
0.0
 20
0.0
 30
0.0
  3
Marker_SFR
  1

  0
LWPOLYLINE
  5
3D3
330
3D0
100
AcDbEntity
  8
VIEWMRK
 62
     0
100
AcDbPolyline
 90
        5
 70
     1
 43
0.0
 10
0.8
 20
0.0
 10
0.8
 20
0.2
 10
0.0
 20
1.0
 10
-0.2
 20
0.8
 10
-0.2
 20
0.0
  0
ENDBLK
  5
3D2
330
3D0
100
AcDbEntity
  8
0
100
AcDbBlockEnd
  0
BLOCK
  5
3D5
330
3D4
100
AcDbEntity
  8
0
100
AcDbBlockBegin
  2
Marker_BL_
 70
     0
 10
0.0
 20
0.0
 30
0.0
  3
Marker_BL_
  1

  0
LWPOLYLINE
  5
3D7
330
3D4
100
AcDbEntity
  8
VIEWMRK
 62
     0
100
AcDbPolyline
 90
        3
 70
     0
 43
0.0
 10
0.0
 20
0.1
 10
1.0
 20
0.1
 10
1.0
 20
0.6
  0
LWPOLYLINE
  5
3D8
330
3D4
100
AcDbEntity
  8
VIEWMRK
 62
     0
100
AcDbPolyline
 90
        2
 70
     0
 43
0.0
 10
0.0334
 20
0.1666
 10
0.1
 20
0.1
  0
LWPOLYLINE
  5
3D9
330
3D4
100
AcDbEntity
  8
VIEWMRK
 62
     0
100
AcDbPolyline
 90
        2
 70
     0
 43
0.0
 10
0.1597
 20
0.3403
 10
0.4
 20
0.1
  0
LWPOLYLINE
  5
3DA
330
3D4
100
AcDbEntity
  8
VIEWMRK
 62
     0
100
AcDbPolyline
 90
        2
 70
     0
 43
0.0
 10
0.3225
 20
0.4775
 10
0.7
 20
0.1
  0
LWPOLYLINE
  5
3DB
330
3D4
100
AcDbEntity
  8
VIEWMRK
 62
     0
100
AcDbPolyline
 90
        2
 70
     0
 43
0.0
 10
0.5246
 20
0.5754000000000001
 10
1.0
 20
0.1
  0
LWPOLYLINE
  5
3DC
330
3D4
100
AcDbEntity
  8
VIEWMRK
 62
     0
100
AcDbPolyline
 90
        2
 70
     0
 43
0.0
 10
0.7789000000000001
 20
0.6211000000000001
 10
1.0
 20
0.4
  0
ENDBLK
  5
3D6
330
3D4
100
AcDbEntity
  8
0
100
AcDbBlockEnd
  0
BLOCK
  5
3DE
330
3DD
100
AcDbEntity
  8
0
100
AcDbBlockBegin
  2
Marker_BR_
 70
     0
 10
0.0
 20
0.0
 30
0.0
  3
Marker_BR_
  1

  0
LWPOLYLINE
  5
3E0
330
3DD
100
AcDbEntity
  8
VIEWMRK
 62
     0
100
AcDbPolyline
 90
        3
 70
     0
 43
0.0
 10
0.0
 20
-0.1
 10
1.0
 20
-0.1
 10
1.0
 20
-0.6
  0
LWPOLYLINE
  5
3E1
330
3DD
100
AcDbEntity
  8
VIEWMRK
 62
     0
100
AcDbPolyline
 90
        2
 70
     0
 43
0.0
 10
0.0334
 20
-0.1666
 10
0.1
 20
-0.1
  0
LWPOLYLINE
  5
3E2
330
3DD
100
AcDbEntity
  8
VIEWMRK
 62
     0
100
AcDbPolyline
 90
        2
 70
     0
 43
0.0
 10
0.1597
 20
-0.3403
 10
0.4
 20
-0.1
  0
LWPOLYLINE
  5
3E3
330
3DD
100
AcDbEntity
  8
VIEWMRK
 62
     0
100
AcDbPolyline
 90
        2
 70
     0
 43
0.0
 10
0.3225
 20
-0.4775
 10
0.7
 20
-0.1
  0
LWPOLYLINE
  5
3E4
330
3DD
100
AcDbEntity
  8
VIEWMRK
 62
     0
100
AcDbPolyline
 90
        2
 70
     0
 43
0.0
 10
0.5246
 20
-0.5754000000000001
 10
1.0
 20
-0.1
  0
LWPOLYLINE
  5
3E5
330
3DD
100
AcDbEntity
  8
VIEWMRK
 62
     0
100
AcDbPolyline
 90
        2
 70
     0
 43
0.0
 10
0.7789000000000001
 20
-0.6211000000000001
 10
1.0
 20
-0.4
  0
ENDBLK
  5
3DF
330
3DD
100
AcDbEntity
  8
0
100
AcDbBlockEnd
  0
BLOCK
  5
3E7
330
3E6
100
AcDbEntity
  8
0
100
AcDbBlockBegin
  2
LpDocKernel
 70
     0
 10
0.0
 20
0.0
 30
0.0
  3
LpDocKernel
  1

  0
ENDBLK
  5
3E8
330
3E6
100
AcDbEntity
  8
0
100
AcDbBlockEnd
  0
ENDSEC
  0
SECTION
  2
ENTITIES
  0
LINE
  5
1F2
330
2
100
AcDbEntity
  8
0
100
AcDbLine
 10
229.7055316499982
 20
239.195603936225
 30
0.0
 11
206.5352052660661
 21
239.195603936225
 31
0.0
  0
LINE
  5
1F3
330
2
100
AcDbEntity
  8
0
100
AcDbLine
 10
229.7055316499982
 20
251.1956039362249
 30
0.0
 11
206.5352052660661
 21
251.1956039362249
 31
0.0
  0
LINE
  5
1F4
330
2
100
AcDbEntity
  8
0
100
AcDbLine
 10
229.7055316499982
 20
216.695603936225
 30
0.0
 11
206.5352052660661
 21
216.695603936225
 31
0.0
  0
LINE
  5
1F5
330
2
100
AcDbEntity
  8
0
100
AcDbLine
 10
229.7055316499982
 20
229.6956039362249
 30
0.0
 11
206.5352052660661
 21
229.6956039362249
 31
0.0
  0
TEXT
  5
1F6
330
2
100
AcDbEntity
  8
0
100
AcDbText
 10
79.70175376405035
 20
209.2315594925376
 30
0.0
 40
2.5
  1
31
100
AcDbText
  0
TEXT
  5
1F7
330
2
100
AcDbEntity
  8
0
100
AcDbText
 10
79.40413471643132
 20
262.4266336851396
 30
0.0
 40
2.5
  1
30
100
AcDbText
  0
LINE
  5
1F8
330
2
100
AcDbEntity
  8
0
100
AcDbLine
 10
69.2850870973837
 20
261.8016336851396
 30
0.0
 11
94.28508709738371
 21
261.8016336851396
 31
0.0
  0
LINE
  5
1F9
330
2
100
AcDbEntity
  8
0
100
AcDbLine
 10
68.78508709738369
 20
208.6065594925376
 30
0.0
 11
94.7850870973837
 21
208.6065594925376
 31
0.0
  0
LINE
  5
1FA
330
2
100
AcDbEntity
  8
0
100
AcDbLine
 10
81.78508709738373
 20
224.1956039362249
 30
0.0
 11
84.41259341856005
 21
221.1796114740032
 31
0.0
  0
ARC
  5
1FB
330
2
100
AcDbEntity
  8
KCF_071ffsf01
100
AcDbCircle
 10
81.7850870973837
 20
244.195603936225
 30
0.0
 40
3.5
100
AcDbArc
 50
0.0
 51
180.0
1001
LpCAD
1000
sf01
1000
;Auto-01;KCF_071ffsf01;0;0;
1040
69.70353755551325
1070
     1
1040
29.35398163397451
1040
6.0
  0
LINE
  5
1FE
330
2
100
AcDbEntity
  8
KCF_071ffsf01
100
AcDbLine
 10
69.28508709738368
 20
239.1956039362249
 30
0.0
 11
94.2850870973837
 21
239.195603936225
 31
0.0
1001
LpCAD
1000
sf01
1000
;Auto-01;KCF_071ffsf01;0;0;
1040
69.70353755551325
1070
     1
1040
29.35398163397451
1040
6.0
  0
ARC
  5
1FF
330
2
100
AcDbEntity
  8
KCF_071ffsf01
100
AcDbCircle
 10
81.7850870973837
 20
224.1956039362249
 30
0.0
 40
4.0
100
AcDbArc
 50
187.1807557814583
 51
352.8192442185417
1001
LpCAD
1000
sf01
1000
;Auto-01;KCF_071ffsf01;0;0;
1040
72.47604995335965
1070
     1
1040
30.45615099417251
1040
6.0
  0
LINE
  5
200
330
2
100
AcDbEntity
  8
KCF_071ffsf01
100
AcDbLine
 10
69.28508709738368
 20
229.695603936225
 30
0.0
 11
94.2850870973837
 21
229.6956039362249
 31
0.0
1001
LpCAD
1000
sf01
1000
;Auto-01;KCF_071ffsf01;0;0;
1040
72.47604995335965
1070
     1
1040
30.45615099417251
1040
6.0
  0
TEXT
  5
201
330
2
100
AcDbEntity
  8
0
100
AcDbText
 10
72.01847184612957
 20
258.5649002335547
 30
0.0
 40
2.499999999999991
  1
R3,5
 50
307.8372972616406
 51
0.0000000000000799
100
AcDbText
  0
LINE
  5
202
330
2
100
AcDbEntity
  8
0
100
AcDbLine
 10
44.28508709738369
 20
242.3206039362249
 30
0.0
 11
44.28508709738369
 21
261.423283604965
 31
0.0
  0
LINE
  5
203
330
2
100
AcDbEntity
  8
0
100
AcDbLine
 10
14.28508709738368
 20
242.3206039362249
 30
0.0
 11
14.28508709738369
 21
261.423283604965
 31
0.0
  0
TEXT
  5
204
330
2
100
AcDbEntity
  8
0
100
AcDbText
 10
18.84740985410662
 20
255.3559345988833
 30
0.0
 40
2.499999999999999
  1
R5
 50
315.4277728606094
 51
359.9999999999994
100
AcDbText
  0
LINE
  5
205
330
2
100
AcDbEntity
  8
0
100
AcDbLine
 10
70.91146459139284
 20
258.1949668644226
 30
0.0
 11
78.10455939891532
 21
248.9341391382475
 31
0.0
  0
LINE
  5
206
330
2
100
AcDbEntity
  8
0
100
AcDbLine
 10
66.7850870973837
 20
242.3206039362249
 30
0.0
 11
66.7850870973837
 21
263.0516336851396
 31
0.0
  0
LINE
  5
207
330
2
100
AcDbEntity
  8
0
100
AcDbLine
 10
16.28508709738368
 20
206.5898535068625
 30
0.0
 11
42.28508709738369
 21
206.5898535068625
 31
0.0
  0
LINE
  5
208
330
2
100
AcDbEntity
  8
0
100
AcDbLine
 10
28.66008709738369
 20
218.6956039362251
 30
0.0
 11
5.56961911359294
 21
218.6956039362251
 31
0.0
  0
ARC
  5
209
330
2
100
AcDbEntity
  8
KCF_071ffsf01
100
AcDbCircle
 10
16.78508709738368
 20
241.695603936225
 30
0.0
 40
2.5
100
AcDbArc
 50
90.0
 51
270.0
1001
LpCAD
1000
sf01
1000
;Auto-01;KCF_071ffsf01;0;0;
1040
71.41592653589795
1070
     1
1040
12.5
1040
4.0
  0
ARC
  5
20A
330
2
100
AcDbEntity
  8
KCF_071ffsf01
100
AcDbCircle
 10
16.78508709738368
 20
226.6956039362249
 30
0.0
 40
3.0
100
AcDbArc
 50
90.0
 51
270.0
1001
LpCAD
1000
sf01
1000
;Auto-01;KCF_071ffsf01;0;0;
1040
74.17248180776748
1070
     1
1040
12.5
1040
4.0
  0
LINE
  5
20B
330
2
100
AcDbEntity
  8
0
100
AcDbLine
 10
13.78508709738368
 20
226.0706039362249
 30
0.0
 11
13.78508709738368
 21
205.3398535068625
 31
0.0
  0
SOLID
  5
20C
330
2
100
AcDbEntity
  8
0
100
AcDbTrace
 10
16.28508709738368
 20
207.0065201735291
 30
0.0
 11
16.28508709738368
 21
206.1731868401958
 31
0.0
 12
13.78508709738368
 22
206.5898535068625
 32
0.0
 13
13.78508709738368
 23
206.5898535068625
 33
0.0
  0
LINE
  5
20D
330
2
100
AcDbEntity
  8
0
100
AcDbLine
 10
6.819619113592938
 20
221.1956039362251
 30
0.0
 11
6.81961911359294
 21
227.1956039362249
 31
0.0
  0
SOLID
  5
20E
330
2
100
AcDbEntity
  8
0
100
AcDbTrace
 10
6.402952446926272
 20
221.1956039362251
 30
0.0
 11
7.236285780259606
 21
221.1956039362251
 31
0.0
 12
6.819619113592938
 22
218.6956039362251
 32
0.0
 13
6.819619113592938
 23
218.6956039362251
 33
0.0
  0
LINE
  5
20F
330
2
100
AcDbEntity
  8
0
100
AcDbLine
 10
16.16008709738369
 20
229.6956039362249
 30
0.0
 11
5.56961911359294
 21
229.6956039362249
 31
0.0
  0
TEXT
  5
210
330
2
100
AcDbEntity
  8
0
100
AcDbText
 10
6.194619113592937
 20
222.2908420314631
 30
0.0
 40
2.499999999999999
  1
11
 50
90.0
100
AcDbText
  0
SOLID
  5
211
330
2
100
AcDbEntity
  8
0
100
AcDbTrace
 10
6.402952446926274
 20
227.1956039362249
 30
0.0
 11
7.236285780259606
 21
227.1956039362249
 31
0.0
 12
6.81961911359294
 22
229.6956039362249
 32
0.0
 13
6.81961911359294
 23
229.6956039362249
 33
0.0
  0
SOLID
  5
212
330
2
100
AcDbEntity
  8
0
100
AcDbTrace
 10
6.402952446926276
 20
246.695603936225
 30
0.0
 11
7.236285780259608
 21
246.695603936225
 31
0.0
 12
6.819619113592942
 22
244.195603936225
 32
0.0
 13
6.819619113592942
 23
244.195603936225
 33
0.0
  0
LINE
  5
213
330
2
100
AcDbEntity
  8
0
100
AcDbLine
 10
16.16008709738369
 20
239.1956039362249
 30
0.0
 11
5.56961911359294
 21
239.1956039362249
 31
0.0
  0
LINE
  5
214
330
2
100
AcDbEntity
  8
0
100
AcDbLine
 10
16.16008709738369
 20
244.195603936225
 30
0.0
 11
5.569619113592941
 21
244.195603936225
 31
0.0
  0
SOLID
  5
215
330
2
100
AcDbEntity
  8
0
100
AcDbTrace
 10
6.402952446926274
 20
236.6956039362249
 30
0.0
 11
7.236285780259606
 21
236.6956039362249
 31
0.0
 12
6.81961911359294
 22
239.1956039362249
 32
0.0
 13
6.81961911359294
 23
239.1956039362249
 33
0.0
  0
LINE
  5
216
330
2
100
AcDbEntity
  8
0
100
AcDbLine
 10
6.81961911359294
 20
236.6956039362249
 30
0.0
 11
6.81961911359294
 21
234.195603936225
 31
0.0
  0
TEXT
  5
217
330
2
100
AcDbEntity
  8
0
100
AcDbText
 10
6.194619113592937
 20
240.5051277457487
 30
0.0
 40
2.5
  1
5
 50
90.0
100
AcDbText
  0
LINE
  5
218
330
2
100
AcDbEntity
  8
0
100
AcDbLine
 10
6.819619113592942
 20
244.195603936225
 30
0.0
 11
6.81961911359294
 21
239.1956039362249
 31
0.0
  0
LINE
  5
219
330
2
100
AcDbEntity
  8
0
100
AcDbLine
 10
6.819619113592942
 20
246.695603936225
 30
0.0
 11
6.819619113592942
 21
249.1956039362249
 31
0.0
  0
LINE
  5
21A
330
2
100
AcDbEntity
  8
0
100
AcDbLine
 10
41.54040601092344
 20
208.7382513482049
 30
0.0
 11
34.25525867849329
 21
217.9268405450667
 31
0.0
  0
LINE
  5
21B
330
2
100
AcDbEntity
  8
0
100
AcDbLine
 10
44.78508709738369
 20
226.0706039362249
 30
0.0
 11
44.78508709738369
 21
205.3398535068625
 31
0.0
  0
LINE
  5
21C
330
2
100
AcDbEntity
  8
0
100
AcDbLine
 10
66.28508709738369
 20
226.070603936225
 30
0.0
 11
66.28508709738369
 21
207.3565594925376
 31
0.0
  0
TEXT
  5
21D
330
2
100
AcDbEntity
  8
0
100
AcDbText
 10
27.20175376405036
 20
207.2148535068624
 30
0.0
 40
2.5
  1
31
100
AcDbText
  0
SOLID
  5
21E
330
2
100
AcDbEntity
  8
0
100
AcDbTrace
 10
42.28508709738369
 20
207.0065201735291
 30
0.0
 11
42.28508709738369
 21
206.1731868401958
 31
0.0
 12
44.78508709738369
 22
206.5898535068625
 32
0.0
 13
44.78508709738369
 23
206.5898535068625
 33
0.0
  0
SOLID
  5
21F
330
2
100
AcDbEntity
  8
0
100
AcDbTrace
 10
68.78508709738369
 20
209.0232261592043
 30
0.0
 11
68.78508709738369
 21
208.1898928258709
 31
0.0
 12
66.28508709738369
 22
208.6065594925376
 32
0.0
 13
66.28508709738369
 23
208.6065594925376
 33
0.0
  0
TEXT
  5
220
330
2
100
AcDbEntity
  8
0
100
AcDbText
 10
51.1459324835654
 20
241.993222983844
 30
0.0
 40
2.5
  1
10
 50
90.0
100
AcDbText
  0
LINE
  5
221
330
2
100
AcDbEntity
  8
0
100
AcDbLine
 10
42.41008709738369
 20
239.1956039362249
 30
0.0
 11
53.02093248356541
 21
239.1956039362249
 31
0.0
  0
LINE
  5
222
330
2
100
AcDbEntity
  8
0
100
AcDbLine
 10
29.91008709738369
 20
249.1956039362249
 30
0.0
 11
53.02093248356541
 21
249.1956039362249
 31
0.0
  0
TEXT
  5
223
330
2
100
AcDbEntity
  8
0
100
AcDbText
 10
51.1459324835654
 20
225.5051277457488
 30
0.0
 40
2.5
  1
6
 50
90.0
100
AcDbText
  0
LINE
  5
224
330
2
100
AcDbEntity
  8
0
100
AcDbLine
 10
42.41008709738369
 20
223.6956039362249
 30
0.0
 11
53.02093248356541
 21
223.6956039362249
 31
0.0
  0
LINE
  5
225
330
2
100
AcDbEntity
  8
0
100
AcDbLine
 10
42.41008709738369
 20
229.695603936225
 30
0.0
 11
53.02093248356541
 21
229.695603936225
 31
0.0
  0
SOLID
  5
226
330
2
100
AcDbEntity
  8
0
100
AcDbTrace
 10
34.58175677178279
 20
218.1857036482495
 30
0.0
 11
33.92876058520378
 21
217.6679774418839
 31
0.0
 12
32.7020800593965
 22
219.8858291048038
 32
0.0
 13
32.7020800593965
 23
219.8858291048038
 33
0.0
  0
ARC
  5
227
330
2
100
AcDbEntity
  8
KCF_071ffsf01
100
AcDbCircle
 10
29.28508709738368
 20
224.1956039362251
 30
0.0
 40
5.5
100
AcDbArc
 50
185.2159085704559
 51
354.7840914295441
1001
LpCAD
1000
sf01
1000
;Auto-01;KCF_071ffsf01;0;0;
1040
74.17248180776748
1070
     1
1040
12.5
1040
4.0
  0
LINE
  5
228
330
2
100
AcDbEntity
  8
KCF_071ffsf01
100
AcDbLine
 10
16.78508709738368
 20
229.6956039362249
 30
0.0
 11
41.78508709738369
 21
229.695603936225
 31
0.0
1001
LpCAD
1000
sf01
1000
;Auto-01;KCF_071ffsf01;0;0;
1040
74.17248180776748
1070
     1
1040
12.5
1040
4.0
  0
LINE
  5
229
330
2
100
AcDbEntity
  8
0
100
AcDbLine
 10
29.28508709738369
 20
224.1956039362251
 30
0.0
 11
32.7020800593965
 21
219.8858291048038
 31
0.0
  0
LINE
  5
22A
330
2
100
AcDbEntity
  8
KCF_071ffsf01
100
AcDbLine
 10
23.80786152233204
 20
223.6956039362249
 30
0.0
 11
16.78508709738368
 21
223.6956039362249
 31
0.0
1001
LpCAD
1000
sf01
1000
;Auto-01;KCF_071ffsf01;0;0;
1040
74.17248180776748
1070
     1
1040
12.5
1040
4.0
  0
TEXT
  5
22B
330
2
100
AcDbEntity
  8
0
100
AcDbText
 10
36.91169799709637
 20
216.3488133856868
 30
0.0
 40
2.50000000000001
  1
R5,5
 50
308.4090418784756
100
AcDbText
  0
LINE
  5
22C
330
2
100
AcDbEntity
  8
KCF_071ffsf01
100
AcDbLine
 10
41.78508709738369
 20
223.6956039362249
 30
0.0
 11
34.76231267243533
 21
223.6956039362249
 31
0.0
1001
LpCAD
1000
sf01
1000
;Auto-01;KCF_071ffsf01;0;0;
1040
74.17248180776748
1070
     1
1040
12.5
1040
4.0
  0
ARC
  5
22D
330
2
100
AcDbEntity
  8
KCF_071ffsf01
100
AcDbCircle
 10
41.78508709738369
 20
226.6956039362249
 30
0.0
 40
3.000000000000007
100
AcDbArc
 50
270.0
 51
90.0
1001
LpCAD
1000
sf01
1000
;Auto-01;KCF_071ffsf01;0;0;
1040
74.17248180776748
1070
     1
1040
12.5
1040
4.0
  0
ARC
  5
22E
330
2
100
AcDbEntity
  8
KCF_071ffsf01
100
AcDbCircle
 10
29.28508709738368
 20
244.195603936225
 30
0.0
 40
5.0
100
AcDbArc
 50
0.0
 51
180.0
1001
LpCAD
1000
sf01
1000
;Auto-01;KCF_071ffsf01;0;0;
1040
71.41592653589795
1070
     1
1040
12.5
1040
4.0
  0
LINE
  5
22F
330
2
100
AcDbEntity
  8
KCF_071ffsf01
100
AcDbLine
 10
16.78508709738368
 20
239.1956039362249
 30
0.0
 11
41.78508709738369
 21
239.1956039362249
 31
0.0
1001
LpCAD
1000
sf01
1000
;Auto-01;KCF_071ffsf01;0;0;
1040
71.41592653589795
1070
     1
1040
12.5
1040
4.0
  0
LINE
  5
230
330
2
100
AcDbEntity
  8
0
100
AcDbLine
 10
29.28508709738368
 20
244.1956039362249
 30
0.0
 11
25.72325552000628
 21
247.7046430945128
 31
0.0
  0
LINE
  5
231
330
2
100
AcDbEntity
  8
KCF_071ffsf01
100
AcDbLine
 10
24.28508709738368
 20
244.195603936225
 30
0.0
 11
16.78508709738368
 21
244.195603936225
 31
0.0
1001
LpCAD
1000
sf01
1000
;Auto-01;KCF_071ffsf01;0;0;
1040
71.41592653589795
1070
     1
1040
12.5
1040
4.0
  0
SOLID
  5
232
330
2
100
AcDbEntity
  8
0
100
AcDbTrace
 10
24.23475966117492
 20
249.7559819717716
 30
0.0
 11
23.64991980146028
 21
249.162343375542
 31
0.0
 12
25.72325552000628
 22
247.7046430945128
 32
0.0
 13
25.72325552000628
 23
247.7046430945128
 33
0.0
  0
LINE
  5
233
330
2
100
AcDbEntity
  8
0
100
AcDbLine
 10
18.13316203964263
 20
255.1822384437215
 30
0.0
 11
23.9423397313176
 21
249.4591626736568
 31
0.0
  0
LINE
  5
234
330
2
100
AcDbEntity
  8
KCF_071ffsf01
100
AcDbLine
 10
41.78508709738369
 20
244.195603936225
 30
0.0
 11
34.28508709738368
 21
244.195603936225
 31
0.0
1001
LpCAD
1000
sf01
1000
;Auto-01;KCF_071ffsf01;0;0;
1040
71.41592653589795
1070
     1
1040
12.5
1040
4.0
  0
ARC
  5
235
330
2
100
AcDbEntity
  8
KCF_071ffsf01
100
AcDbCircle
 10
41.78508709738369
 20
241.6956039362249
 30
0.0
 40
2.500000000000007
100
AcDbArc
 50
270.0
 51
90.0
1001
LpCAD
1000
sf01
1000
;Auto-01;KCF_071ffsf01;0;0;
1040
71.41592653589795
1070
     1
1040
12.5
1040
4.0
  0
LINE
  5
236
330
2
100
AcDbEntity
  8
0
100
AcDbLine
 10
51.77093248356541
 20
232.195603936225
 30
0.0
 11
51.77093248356541
 21
234.6956039362249
 31
0.0
  0
LINE
  5
237
330
2
100
AcDbEntity
  8
0
100
AcDbLine
 10
68.6600870973837
 20
229.695603936225
 30
0.0
 11
61.42954078796513
 21
229.695603936225
 31
0.0
  0
LINE
  5
238
330
2
100
AcDbEntity
  8
0
100
AcDbLine
 10
81.16008709738371
 20
220.1956039362249
 30
0.0
 11
61.42954078796513
 21
220.1956039362249
 31
0.0
  0
SOLID
  5
239
330
2
100
AcDbEntity
  8
0
100
AcDbTrace
 10
51.35426581689874
 20
221.1956039362249
 30
0.0
 11
52.18759915023207
 21
221.1956039362249
 31
0.0
 12
51.77093248356541
 22
223.6956039362249
 32
0.0
 13
51.77093248356541
 23
223.6956039362249
 33
0.0
  0
SOLID
  5
23A
330
2
100
AcDbEntity
  8
0
100
AcDbTrace
 10
62.26287412129847
 20
222.6956039362249
 30
0.0
 11
63.0962074546318
 21
222.6956039362249
 31
0.0
 12
62.67954078796513
 22
220.1956039362249
 32
0.0
 13
62.67954078796513
 23
220.1956039362249
 33
0.0
  0
LINE
  5
23B
330
2
100
AcDbEntity
  8
0
100
AcDbLine
 10
51.77093248356541
 20
221.1956039362249
 30
0.0
 11
51.7709324835654
 21
218.6956039362249
 31
0.0
  0
LINE
  5
23C
330
2
100
AcDbEntity
  8
0
100
AcDbLine
 10
51.77093248356541
 20
229.695603936225
 30
0.0
 11
51.77093248356541
 21
223.6956039362249
 31
0.0
  0
SOLID
  5
23D
330
2
100
AcDbEntity
  8
0
100
AcDbTrace
 10
51.35426581689874
 20
232.195603936225
 30
0.0
 11
52.18759915023207
 21
232.195603936225
 31
0.0
 12
51.77093248356541
 22
229.695603936225
 32
0.0
 13
51.77093248356541
 23
229.695603936225
 33
0.0
  0
TEXT
  5
23E
330
2
100
AcDbEntity
  8
0
100
AcDbText
 10
61.57835031177465
 20
221.9694134600345
 30
0.0
 40
2.5
  1
9,5
 50
90.0
100
AcDbText
  0
LINE
  5
23F
330
2
100
AcDbEntity
  8
0
100
AcDbLine
 10
62.67954078796513
 20
222.6956039362249
 30
0.0
 11
62.67954078796513
 21
227.195603936225
 31
0.0
  0
SOLID
  5
240
330
2
100
AcDbEntity
  8
0
100
AcDbTrace
 10
62.26287412129847
 20
227.195603936225
 30
0.0
 11
63.0962074546318
 21
227.195603936225
 31
0.0
 12
62.67954078796513
 22
229.695603936225
 32
0.0
 13
62.67954078796513
 23
229.695603936225
 33
0.0
  0
LINE
  5
241
330
2
100
AcDbEntity
  8
KCF_071ffsf01
100
AcDbLine
 10
77.81646013078681
 20
223.695603936225
 30
0.0
 11
69.28508709738368
 21
223.695603936225
 31
0.0
1001
LpCAD
1000
sf01
1000
;Auto-01;KCF_071ffsf01;0;0;
1040
72.47604995335965
1070
     1
1040
30.45615099417251
1040
6.0
  0
ARC
  5
242
330
2
100
AcDbEntity
  8
KCF_071ffsf01
100
AcDbCircle
 10
69.28508709738368
 20
226.6956039362249
 30
0.0
 40
3.0
100
AcDbArc
 50
90.0
 51
270.0
1001
LpCAD
1000
sf01
1000
;Auto-01;KCF_071ffsf01;0;0;
1040
72.47604995335965
1070
     1
1040
30.45615099417251
1040
6.0
  0
LINE
  5
243
330
2
100
AcDbEntity
  8
0
100
AcDbLine
 10
68.6600870973837
 20
244.195603936225
 30
0.0
 11
61.42954078796514
 21
244.195603936225
 31
0.0
  0
LINE
  5
244
330
2
100
AcDbEntity
  8
0
100
AcDbLine
 10
68.6600870973837
 20
239.1956039362249
 30
0.0
 11
61.42954078796514
 21
239.1956039362249
 31
0.0
  0
LINE
  5
245
330
2
100
AcDbEntity
  8
0
100
AcDbLine
 10
51.77093248356541
 20
246.695603936225
 30
0.0
 11
51.77093248356541
 21
241.6956039362249
 31
0.0
  0
SOLID
  5
246
330
2
100
AcDbEntity
  8
0
100
AcDbTrace
 10
62.26287412129848
 20
246.695603936225
 30
0.0
 11
63.09620745463181
 21
246.695603936225
 31
0.0
 12
62.67954078796514
 22
244.195603936225
 32
0.0
 13
62.67954078796514
 23
244.195603936225
 33
0.0
  0
SOLID
  5
247
330
2
100
AcDbEntity
  8
0
100
AcDbTrace
 10
51.35426581689874
 20
241.6956039362249
 30
0.0
 11
52.18759915023207
 21
241.6956039362249
 31
0.0
 12
51.77093248356541
 22
239.1956039362249
 32
0.0
 13
51.77093248356541
 23
239.1956039362249
 33
0.0
  0
SOLID
  5
248
330
2
100
AcDbEntity
  8
0
100
AcDbTrace
 10
62.26287412129848
 20
236.6956039362249
 30
0.0
 11
63.09620745463181
 21
236.6956039362249
 31
0.0
 12
62.67954078796514
 22
239.1956039362249
 32
0.0
 13
62.67954078796514
 23
239.1956039362249
 33
0.0
  0
LINE
  5
249
330
2
100
AcDbEntity
  8
0
100
AcDbLine
 10
62.67954078796514
 20
236.6956039362249
 30
0.0
 11
62.67954078796514
 21
234.195603936225
 31
0.0
  0
TEXT
  5
24A
330
2
100
AcDbEntity
  8
0
100
AcDbText
 10
62.05454078796513
 20
240.5051277457488
 30
0.0
 40
2.5
  1
5
 50
90.0
100
AcDbText
  0
LINE
  5
24B
330
2
100
AcDbEntity
  8
0
100
AcDbLine
 10
62.67954078796514
 20
239.1956039362249
 30
0.0
 11
62.67954078796514
 21
244.195603936225
 31
0.0
  0
SOLID
  5
24C
330
2
100
AcDbEntity
  8
0
100
AcDbTrace
 10
51.35426581689874
 20
246.695603936225
 30
0.0
 11
52.18759915023207
 21
246.695603936225
 31
0.0
 12
51.77093248356541
 22
249.1956039362249
 32
0.0
 13
51.77093248356541
 23
249.1956039362249
 33
0.0
  0
LINE
  5
24D
330
2
100
AcDbEntity
  8
0
100
AcDbLine
 10
62.67954078796514
 20
246.695603936225
 30
0.0
 11
62.67954078796514
 21
249.1956039362249
 31
0.0
  0
LINE
  5
24E
330
2
100
AcDbEntity
  8
0
100
AcDbLine
 10
81.78508709738368
 20
244.195603936225
 30
0.0
 11
79.63811260661048
 21
246.9597494707381
 31
0.0
  0
LINE
  5
24F
330
2
100
AcDbEntity
  8
KCF_071ffsf01
100
AcDbLine
 10
78.28508709738369
 20
244.195603936225
 30
0.0
 11
69.28508709738368
 21
244.195603936225
 31
0.0
1001
LpCAD
1000
sf01
1000
;Auto-01;KCF_071ffsf01;0;0;
1040
69.70353755551325
1070
     1
1040
29.35398163397451
1040
6.0
  0
ARC
  5
250
330
2
100
AcDbEntity
  8
KCF_071ffsf01
100
AcDbCircle
 10
69.28508709738368
 20
241.695603936225
 30
0.0
 40
2.5
100
AcDbArc
 50
90.0
 51
270.0
1001
LpCAD
1000
sf01
1000
;Auto-01;KCF_071ffsf01;0;0;
1040
69.70353755551325
1070
     1
1040
29.35398163397451
1040
6.0
  0
SOLID
  5
251
330
2
100
AcDbEntity
  8
0
100
AcDbTrace
 10
78.43362434350023
 20
249.1897313395301
 30
0.0
 11
77.77549445433042
 21
248.678546936965
 31
0.0
 12
79.63811260661048
 22
246.9597494707381
 32
0.0
 13
79.63811260661048
 23
246.9597494707381
 33
0.0
  0
SOLID
  5
252
330
2
100
AcDbEntity
  8
0
100
AcDbTrace
 10
16.78508709738369
 20
260.5899502716316
 30
0.0
 11
16.78508709738369
 21
259.7566169382984
 31
0.0
 12
14.28508709738369
 22
260.173283604965
 32
0.0
 13
14.28508709738369
 23
260.173283604965
 33
0.0
  0
LINE
  5
253
330
2
100
AcDbEntity
  8
0
100
AcDbLine
 10
16.78508709738369
 20
260.173283604965
 30
0.0
 11
41.78508709738369
 21
260.173283604965
 31
0.0
  0
TEXT
  5
254
330
2
100
AcDbEntity
  8
0
100
AcDbText
 10
26.90413471643131
 20
260.798283604965
 30
0.0
 40
2.5
  1
30
100
AcDbText
  0
SOLID
  5
255
330
2
100
AcDbEntity
  8
0
100
AcDbTrace
 10
41.78508709738369
 20
260.5899502716316
 30
0.0
 11
41.78508709738369
 21
259.7566169382984
 31
0.0
 12
44.28508709738369
 22
260.173283604965
 32
0.0
 13
44.28508709738369
 23
260.173283604965
 33
0.0
  0
SOLID
  5
256
330
2
100
AcDbEntity
  8
0
100
AcDbTrace
 10
69.2850870973837
 20
262.2183003518062
 30
0.0
 11
69.2850870973837
 21
261.3849670184729
 31
0.0
 12
66.7850870973837
 22
261.8016336851396
 32
0.0
 13
66.7850870973837
 23
261.8016336851396
 33
0.0
  0
TEXT
  5
257
330
2
100
AcDbEntity
  8
0
100
AcDbText
 10
164.158661158529
 20
256.6361709637527
 30
0.0
 40
2.499999999999988
  1
R3,5
 50
312.9562740298596
 51
359.9999999999998
100
AcDbText
  0
LINE
  5
258
330
2
100
AcDbEntity
  8
0
100
AcDbLine
 10
163.089076130972
 20
256.1689412253338
 30
0.0
 11
171.0797716041959
 21
247.5868477197782
 31
0.0
  0
LINE
  5
259
330
2
100
AcDbEntity
  8
0
100
AcDbLine
 10
160.1684117245055
 20
242.0706039362249
 30
0.0
 11
160.1684117245055
 21
260.4719201890681
 31
0.0
  0
LINE
  5
25A
330
2
100
AcDbEntity
  8
0
100
AcDbLine
 10
190.1684117245055
 20
242.0706039362249
 30
0.0
 11
190.1684117245055
 21
260.4719201890681
 31
0.0
  0
LINE
  5
25B
330
2
100
AcDbEntity
  8
0
100
AcDbLine
 10
199.1733525198547
 20
246.695603936225
 30
0.0
 11
199.1733525198547
 21
256.7075086981297
 31
0.0
  0
TEXT
  5
25C
330
2
100
AcDbEntity
  8
0
100
AcDbText
 10
140.8411016198685
 20
253.2766451287251
 30
0.0
 40
2.500000000000022
  1
R3,5
 50
31.80094695012384
 51
0.0000000000000074
100
AcDbText
  0
LINE
  5
25D
330
2
100
AcDbEntity
  8
0
100
AcDbLine
 10
148.9337631466431
 20
256.9987979757601
 30
0.0
 11
133.3843909993611
 21
247.3574229878594
 31
0.0
  0
TEXT
  5
25E
330
2
100
AcDbEntity
  8
0
100
AcDbText
 10
126.0827061450028
 20
254.5243929541636
 30
0.0
 40
2.500000000000028
  1
18
100
AcDbText
  0
LINE
  5
25F
330
2
100
AcDbEntity
  8
0
100
AcDbLine
 10
96.78508709738371
 20
242.3206039362249
 30
0.0
 11
96.78508709738371
 21
263.0516336851396
 31
0.0
  0
TEXT
  5
260
330
2
100
AcDbEntity
  8
0
100
AcDbText
 10
108.3337333037576
 20
208.604103602811
 30
0.0
 40
2.500000000000006
  1
R4
 50
39.42114690410615
 51
360.0
100
AcDbText
  0
LINE
  5
261
330
2
100
AcDbEntity
  8
0
100
AcDbLine
 10
108.431734459916
 20
207.8756009822418
 30
0.0
 11
123.2638419557218
 21
220.0680020625777
 31
0.0
  0
SOLID
  5
262
330
2
100
AcDbEntity
  8
0
100
AcDbTrace
 10
135.2850870973837
 20
210.3415444276595
 30
0.0
 11
135.2850870973837
 21
209.5082110943261
 31
0.0
 12
137.7850870973837
 22
209.9248777609928
 32
0.0
 13
137.7850870973837
 23
209.9248777609928
 33
0.0
  0
SOLID
  5
263
330
2
100
AcDbEntity
  8
0
100
AcDbTrace
 10
121.2850870973837
 20
210.3415444276595
 30
0.0
 11
121.2850870973837
 21
209.5082110943261
 31
0.0
 12
118.7850870973837
 22
209.9248777609928
 32
0.0
 13
118.7850870973837
 23
209.9248777609928
 33
0.0
  0
LINE
  5
264
330
2
100
AcDbEntity
  8
0
100
AcDbLine
 10
137.7850870973837
 20
226.070603936225
 30
0.0
 11
137.7850870973837
 21
208.6748777609928
 31
0.0
  0
LINE
  5
265
330
2
100
AcDbEntity
  8
0
100
AcDbLine
 10
118.7850870973837
 20
226.070603936225
 30
0.0
 11
118.7850870973837
 21
208.6748777609928
 31
0.0
  0
LINE
  5
266
330
2
100
AcDbEntity
  8
0
100
AcDbLine
 10
97.2850870973837
 20
226.070603936225
 30
0.0
 11
97.2850870973837
 21
207.3565594925376
 31
0.0
  0
SOLID
  5
267
330
2
100
AcDbEntity
  8
0
100
AcDbTrace
 10
94.7850870973837
 20
209.0232261592043
 30
0.0
 11
94.7850870973837
 21
208.1898928258709
 31
0.0
 12
97.2850870973837
 22
208.6065594925376
 32
0.0
 13
97.2850870973837
 23
208.6065594925376
 33
0.0
  0
LINE
  5
268
330
2
100
AcDbEntity
  8
0
100
AcDbLine
 10
121.1600870973837
 20
223.695603936225
 30
0.0
 11
111.7547980454667
 21
223.695603936225
 31
0.0
  0
LINE
  5
269
330
2
100
AcDbEntity
  8
0
100
AcDbLine
 10
121.1600870973837
 20
229.695603936225
 30
0.0
 11
111.7547980454667
 21
229.695603936225
 31
0.0
  0
LINE
  5
26A
330
2
100
AcDbEntity
  8
0
100
AcDbLine
 10
121.1600870973837
 20
239.1956039362249
 30
0.0
 11
111.7547980454667
 21
239.1956039362249
 31
0.0
  0
LINE
  5
26B
330
2
100
AcDbEntity
  8
0
100
AcDbLine
 10
127.6600870973837
 20
247.6956039362249
 30
0.0
 11
111.7547980454667
 21
247.6956039362249
 31
0.0
  0
LINE
  5
26C
330
2
100
AcDbEntity
  8
0
100
AcDbLine
 10
113.0047980454667
 20
232.195603936225
 30
0.0
 11
113.0047980454667
 21
234.695603936225
 31
0.0
  0
LINE
  5
26D
330
2
100
AcDbEntity
  8
0
100
AcDbLine
 10
105.0583760673298
 20
232.1956039362249
 30
0.0
 11
105.0583760673298
 21
234.6956039362249
 31
0.0
  0
LINE
  5
26E
330
2
100
AcDbEntity
  8
0
100
AcDbLine
 10
94.91008709738371
 20
223.695603936225
 30
0.0
 11
106.3083760673298
 21
223.695603936225
 31
0.0
  0
LINE
  5
26F
330
2
100
AcDbEntity
  8
0
100
AcDbLine
 10
94.91008709738371
 20
229.6956039362249
 30
0.0
 11
106.3083760673298
 21
229.6956039362249
 31
0.0
  0
TEXT
  5
270
330
2
100
AcDbEntity
  8
0
100
AcDbText
 10
88.42237381915209
 20
217.5284432975342
 30
0.0
 40
2.5
  1
R4
 50
311.0620958384134
 51
359.9999999999999
100
AcDbText
  0
LINE
  5
271
330
2
100
AcDbEntity
  8
0
100
AcDbLine
 10
91.48965657529986
 20
213.0561793956976
 30
0.0
 11
86.05478486929525
 21
219.2946161851146
 31
0.0
  0
SOLID
  5
272
330
2
100
AcDbEntity
  8
0
100
AcDbTrace
 10
86.36895075077669
 20
219.5683147602371
 30
0.0
 11
85.74061898781382
 21
219.0209176099921
 31
0.0
 12
84.41259341856005
 22
221.1796114740032
 32
0.0
 13
84.41259341856005
 23
221.1796114740032
 33
0.0
  0
LINE
  5
273
330
2
100
AcDbEntity
  8
KCF_071ffsf01
100
AcDbLine
 10
94.2850870973837
 20
223.695603936225
 30
0.0
 11
85.75371406398058
 21
223.695603936225
 31
0.0
1001
LpCAD
1000
sf01
1000
;Auto-01;KCF_071ffsf01;0;0;
1040
72.47604995335965
1070
     1
1040
30.45615099417251
1040
6.0
  0
ARC
  5
274
330
2
100
AcDbEntity
  8
KCF_071ffsf01
100
AcDbCircle
 10
94.2850870973837
 20
226.6956039362249
 30
0.0
 40
2.999999999999992
100
AcDbArc
 50
270.0
 51
90.0
1001
LpCAD
1000
sf01
1000
;Auto-01;KCF_071ffsf01;0;0;
1040
72.47604995335965
1070
     1
1040
30.45615099417251
1040
6.0
  0
SOLID
  5
275
330
2
100
AcDbEntity
  8
0
100
AcDbTrace
 10
112.5881313788
 20
221.195603936225
 30
0.0
 11
113.4214647121334
 21
221.195603936225
 31
0.0
 12
113.0047980454667
 22
223.695603936225
 32
0.0
 13
113.0047980454667
 23
223.695603936225
 33
0.0
  0
SOLID
  5
276
330
2
100
AcDbEntity
  8
0
100
AcDbTrace
 10
104.6417094006631
 20
221.195603936225
 30
0.0
 11
105.4750427339965
 21
221.195603936225
 31
0.0
 12
105.0583760673298
 22
223.695603936225
 32
0.0
 13
105.0583760673298
 23
223.695603936225
 33
0.0
  0
LINE
  5
277
330
2
100
AcDbEntity
  8
0
100
AcDbLine
 10
105.0583760673298
 20
221.195603936225
 30
0.0
 11
105.0583760673298
 21
218.695603936225
 31
0.0
  0
LINE
  5
278
330
2
100
AcDbEntity
  8
0
100
AcDbLine
 10
113.0047980454667
 20
221.195603936225
 30
0.0
 11
113.0047980454667
 21
218.695603936225
 31
0.0
  0
TEXT
  5
279
330
2
100
AcDbEntity
  8
0
100
AcDbText
 10
104.4333760673298
 20
225.5051277457488
 30
0.0
 40
2.5
  1
6
 50
90.0
100
AcDbText
  0
LINE
  5
27A
330
2
100
AcDbEntity
  8
0
100
AcDbLine
 10
105.0583760673298
 20
229.6956039362249
 30
0.0
 11
105.0583760673298
 21
223.695603936225
 31
0.0
  0
SOLID
  5
27B
330
2
100
AcDbEntity
  8
0
100
AcDbTrace
 10
104.6417094006631
 20
232.1956039362249
 30
0.0
 11
105.4750427339965
 21
232.1956039362249
 31
0.0
 12
105.0583760673298
 22
229.6956039362249
 32
0.0
 13
105.0583760673298
 23
229.6956039362249
 33
0.0
  0
TEXT
  5
27C
330
2
100
AcDbEntity
  8
0
100
AcDbText
 10
112.3797980454667
 20
225.5051277457488
 30
0.0
 40
2.5
  1
6
 50
90.0
100
AcDbText
  0
LINE
  5
27D
330
2
100
AcDbEntity
  8
0
100
AcDbLine
 10
113.0047980454667
 20
229.695603936225
 30
0.0
 11
113.0047980454667
 21
223.695603936225
 31
0.0
  0
SOLID
  5
27E
330
2
100
AcDbEntity
  8
0
100
AcDbTrace
 10
112.5881313788
 20
232.195603936225
 30
0.0
 11
113.4214647121334
 21
232.195603936225
 31
0.0
 12
113.0047980454667
 22
229.695603936225
 32
0.0
 13
113.0047980454667
 23
229.695603936225
 33
0.0
  0
LINE
  5
27F
330
2
100
AcDbEntity
  8
0
100
AcDbLine
 10
94.91008709738371
 20
239.195603936225
 30
0.0
 11
106.3083760673298
 21
239.1956039362249
 31
0.0
  0
LINE
  5
280
330
2
100
AcDbEntity
  8
0
100
AcDbLine
 10
82.41008709738371
 20
247.6956039362249
 30
0.0
 11
106.3083760673298
 21
247.6956039362249
 31
0.0
  0
LINE
  5
281
330
2
100
AcDbEntity
  8
KCF_071ffsf01
100
AcDbLine
 10
94.2850870973837
 20
244.195603936225
 30
0.0
 11
85.28508709738369
 21
244.195603936225
 31
0.0
1001
LpCAD
1000
sf01
1000
;Auto-01;KCF_071ffsf01;0;0;
1040
69.70353755551325
1070
     1
1040
29.35398163397451
1040
6.0
  0
ARC
  5
282
330
2
100
AcDbEntity
  8
KCF_071ffsf01
100
AcDbCircle
 10
94.2850870973837
 20
241.695603936225
 30
0.0
 40
2.499999999999992
100
AcDbArc
 50
270.0
 51
90.0
1001
LpCAD
1000
sf01
1000
;Auto-01;KCF_071ffsf01;0;0;
1040
69.70353755551325
1070
     1
1040
29.35398163397451
1040
6.0
  0
TEXT
  5
283
330
2
100
AcDbEntity
  8
0
100
AcDbText
 10
103.9571855911393
 20
240.4694134600345
 30
0.0
 40
2.5
  1
8,5
 50
90.0
100
AcDbText
  0
TEXT
  5
284
330
2
100
AcDbEntity
  8
0
100
AcDbText
 10
111.9036075692762
 20
240.4694134600345
 30
0.0
 40
2.5
  1
8,5
 50
90.0
100
AcDbText
  0
LINE
  5
285
330
2
100
AcDbEntity
  8
0
100
AcDbLine
 10
113.0047980454667
 20
245.1956039362249
 30
0.0
 11
113.0047980454667
 21
241.6956039362249
 31
0.0
  0
LINE
  5
286
330
2
100
AcDbEntity
  8
0
100
AcDbLine
 10
105.0583760673298
 20
245.1956039362249
 30
0.0
 11
105.0583760673298
 21
241.695603936225
 31
0.0
  0
SOLID
  5
287
330
2
100
AcDbEntity
  8
0
100
AcDbTrace
 10
104.6417094006632
 20
241.695603936225
 30
0.0
 11
105.4750427339965
 21
241.695603936225
 31
0.0
 12
105.0583760673298
 22
239.1956039362249
 32
0.0
 13
105.0583760673298
 23
239.1956039362249
 33
0.0
  0
SOLID
  5
288
330
2
100
AcDbEntity
  8
0
100
AcDbTrace
 10
112.5881313788001
 20
241.6956039362249
 30
0.0
 11
113.4214647121334
 21
241.6956039362249
 31
0.0
 12
113.0047980454667
 22
239.1956039362249
 32
0.0
 13
113.0047980454667
 23
239.1956039362249
 33
0.0
  0
SOLID
  5
289
330
2
100
AcDbEntity
  8
0
100
AcDbTrace
 10
104.6417094006632
 20
245.1956039362249
 30
0.0
 11
105.4750427339965
 21
245.1956039362249
 31
0.0
 12
105.0583760673298
 22
247.6956039362249
 32
0.0
 13
105.0583760673298
 23
247.6956039362249
 33
0.0
  0
SOLID
  5
28A
330
2
100
AcDbEntity
  8
0
100
AcDbTrace
 10
112.5881313788001
 20
245.1956039362249
 30
0.0
 11
113.4214647121334
 21
245.1956039362249
 31
0.0
 12
113.0047980454667
 22
247.6956039362249
 32
0.0
 13
113.0047980454667
 23
247.6956039362249
 33
0.0
  0
LINE
  5
28B
330
2
100
AcDbEntity
  8
0
100
AcDbLine
 10
128.9100870973837
 20
220.1956039362251
 30
0.0
 11
146.5666723038991
 21
220.1956039362251
 31
0.0
  0
LINE
  5
28C
330
2
100
AcDbEntity
  8
0
100
AcDbLine
 10
121.2850870973837
 20
209.9248777609928
 30
0.0
 11
135.2850870973837
 21
209.9248777609928
 31
0.0
  0
LINE
  5
28D
330
2
100
AcDbEntity
  8
KCF_071ffsf01
100
AcDbLine
 10
121.7850870973837
 20
229.695603936225
 30
0.0
 11
134.7850870973837
 21
229.6956039362249
 31
0.0
1001
LpCAD
1000
sf01
1000
;Auto-01;KCF_071FFsf01;0;0;
1040
48.47604995335941
1070
     0
  0
ARC
  5
28E
330
2
100
AcDbEntity
  8
KCF_071ffsf01
100
AcDbCircle
 10
128.2850870973837
 20
224.1956039362251
 30
0.0
 40
4.0
100
AcDbArc
 50
187.1807557814599
 51
352.81924421854
1001
LpCAD
1000
sf01
1000
;Auto-01;KCF_071FFsf01;0;0;
1040
48.47604995335941
1070
     0
  0
SOLID
  5
28F
330
2
100
AcDbEntity
  8
0
100
AcDbTrace
 10
122.9992520920265
 20
220.3898767511458
 30
0.0
 11
123.5284318194172
 21
219.7461273740096
 31
0.0
 12
125.1950900871302
 22
221.6555412447498
 32
0.0
 13
125.1950900871302
 23
221.6555412447498
 33
0.0
  0
TEXT
  5
290
330
2
100
AcDbEntity
  8
0
100
AcDbText
 10
126.0827061450028
 20
210.5498777609928
 30
0.0
 40
2.5
  1
19
100
AcDbText
  0
LINE
  5
291
330
2
100
AcDbEntity
  8
KCF_071ffsf01
100
AcDbLine
 10
124.3164601307868
 20
223.695603936225
 30
0.0
 11
121.7850870973837
 21
223.695603936225
 31
0.0
1001
LpCAD
1000
sf01
1000
;Auto-01;KCF_071FFsf01;0;0;
1040
48.47604995335941
1070
     0
  0
ARC
  5
292
330
2
100
AcDbEntity
  8
KCF_071ffsf01
100
AcDbCircle
 10
121.7850870973837
 20
226.695603936225
 30
0.0
 40
3.0
100
AcDbArc
 50
90.0
 51
270.0
1001
LpCAD
1000
sf01
1000
;Auto-01;KCF_071FFsf01;0;0;
1040
48.47604995335941
1070
     0
  0
LINE
  5
293
330
2
100
AcDbEntity
  8
0
100
AcDbLine
 10
128.2850870973835
 20
224.1956039362251
 30
0.0
 11
125.1950900871302
 21
221.6555412447498
 31
0.0
  0
SOLID
  5
294
330
2
100
AcDbEntity
  8
0
100
AcDbTrace
 10
144.9000056372324
 20
222.6956039362251
 30
0.0
 11
145.7333389705657
 21
222.6956039362251
 31
0.0
 12
145.3166723038991
 22
220.1956039362251
 32
0.0
 13
145.3166723038991
 23
220.1956039362251
 33
0.0
  0
LINE
  5
295
330
2
100
AcDbEntity
  8
0
100
AcDbLine
 10
135.4100870973837
 20
229.695603936225
 30
0.0
 11
146.5666723038991
 21
229.695603936225
 31
0.0
  0
ARC
  5
296
330
2
100
AcDbEntity
  8
KCF_071ffsf01
100
AcDbCircle
 10
134.7850870973837
 20
226.6956039362249
 30
0.0
 40
2.999999999999985
100
AcDbArc
 50
270.0
 51
90.0
1001
LpCAD
1000
sf01
1000
;Auto-01;KCF_071FFsf01;0;0;
1040
48.47604995335941
1070
     0
  0
LINE
  5
297
330
2
100
AcDbEntity
  8
KCF_071ffsf01
100
AcDbLine
 10
134.7850870973837
 20
223.695603936225
 30
0.0
 11
132.2537140639806
 21
223.695603936225
 31
0.0
1001
LpCAD
1000
sf01
1000
;Auto-01;KCF_071FFsf01;0;0;
1040
48.47604995335941
1070
     0
  0
TEXT
  5
298
330
2
100
AcDbEntity
  8
0
100
AcDbText
 10
144.2154818277086
 20
221.9694134600346
 30
0.0
 40
2.5
  1
9,5
 50
90.0
100
AcDbText
  0
LINE
  5
299
330
2
100
AcDbEntity
  8
0
100
AcDbLine
 10
145.3166723038991
 20
227.195603936225
 30
0.0
 11
145.3166723038991
 21
222.6956039362251
 31
0.0
  0
SOLID
  5
29A
330
2
100
AcDbEntity
  8
0
100
AcDbTrace
 10
144.9000056372324
 20
227.195603936225
 30
0.0
 11
145.7333389705657
 21
227.195603936225
 31
0.0
 12
145.3166723038991
 22
229.695603936225
 32
0.0
 13
145.3166723038991
 23
229.695603936225
 33
0.0
  0
LINE
  5
29B
330
2
100
AcDbEntity
  8
0
100
AcDbLine
 10
128.2850870973837
 20
244.195603936225
 30
0.0
 11
131.2596810402038
 21
246.0399983830118
 31
0.0
  0
LINE
  5
29C
330
2
100
AcDbEntity
  8
0
100
AcDbLine
 10
121.7850870973837
 20
253.8993929541636
 30
0.0
 11
134.7850870973837
 21
253.8993929541636
 31
0.0
  0
LINE
  5
29D
330
2
100
AcDbEntity
  8
KCF_071ffsf01
100
AcDbLine
 10
121.7850870973837
 20
239.1956039362249
 30
0.0
 11
134.7850870973837
 21
239.195603936225
 31
0.0
1001
LpCAD
1000
sf01
1000
;Auto-01;KCF_071ffsf01;0;0;
1040
45.7035375555132
1070
     0
  0
ARC
  5
29E
330
2
100
AcDbEntity
  8
KCF_071ffsf01
100
AcDbCircle
 10
128.2850870973837
 20
244.1956039362249
 30
0.0
 40
3.5
100
AcDbArc
 50
0.0
 51
180.0
1001
LpCAD
1000
sf01
1000
;Auto-01;KCF_071ffsf01;0;0;
1040
45.7035375555132
1070
     0
  0
LINE
  5
29F
330
2
100
AcDbEntity
  8
0
100
AcDbLine
 10
119.2850870973837
 20
242.3206039362249
 30
0.0
 11
119.2850870973837
 21
255.1493929541636
 31
0.0
  0
LINE
  5
2A0
330
2
100
AcDbEntity
  8
KCF_071ffsf01
100
AcDbLine
 10
124.7850870973837
 20
244.1956039362249
 30
0.0
 11
121.7850870973837
 21
244.1956039362249
 31
0.0
1001
LpCAD
1000
sf01
1000
;Auto-01;KCF_071ffsf01;0;0;
1040
45.7035375555132
1070
     0
  0
ARC
  5
2A1
330
2
100
AcDbEntity
  8
KCF_071ffsf01
100
AcDbCircle
 10
121.7850870973837
 20
241.6956039362249
 30
0.0
 40
2.5
100
AcDbArc
 50
90.0
 51
270.0
1001
LpCAD
1000
sf01
1000
;Auto-01;KCF_071ffsf01;0;0;
1040
45.7035375555132
1070
     0
  0
SOLID
  5
2A2
330
2
100
AcDbEntity
  8
0
100
AcDbTrace
 10
121.7850870973837
 20
254.3160596208303
 30
0.0
 11
121.7850870973837
 21
253.482726287497
 31
0.0
 12
119.2850870973837
 22
253.8993929541636
 32
0.0
 13
119.2850870973837
 23
253.8993929541636
 33
0.0
  0
SOLID
  5
2A3
330
2
100
AcDbEntity
  8
0
100
AcDbTrace
 10
144.9000056372324
 20
246.6956039362249
 30
0.0
 11
145.7333389705657
 21
246.6956039362249
 31
0.0
 12
145.3166723038991
 22
244.1956039362249
 32
0.0
 13
145.3166723038991
 23
244.1956039362249
 33
0.0
  0
LINE
  5
2A4
330
2
100
AcDbEntity
  8
0
100
AcDbLine
 10
137.2850870973837
 20
242.3206039362249
 30
0.0
 11
137.2850870973837
 21
255.1493929541636
 31
0.0
  0
LINE
  5
2A5
330
2
100
AcDbEntity
  8
0
100
AcDbLine
 10
135.4100870973837
 20
239.195603936225
 30
0.0
 11
146.5666723038991
 21
239.1956039362249
 31
0.0
  0
LINE
  5
2A6
330
2
100
AcDbEntity
  8
0
100
AcDbLine
 10
135.4100870973837
 20
244.1956039362249
 30
0.0
 11
146.5666723038991
 21
244.1956039362249
 31
0.0
  0
ARC
  5
2A7
330
2
100
AcDbEntity
  8
KCF_071ffsf01
100
AcDbCircle
 10
134.7850870973837
 20
241.695603936225
 30
0.0
 40
2.499999999999985
100
AcDbArc
 50
270.0
 51
90.0
1001
LpCAD
1000
sf01
1000
;Auto-01;KCF_071ffsf01;0;0;
1040
45.7035375555132
1070
     0
  0
LINE
  5
2A8
330
2
100
AcDbEntity
  8
KCF_071ffsf01
100
AcDbLine
 10
134.7850870973837
 20
244.1956039362249
 30
0.0
 11
131.7850870973837
 21
244.1956039362249
 31
0.0
1001
LpCAD
1000
sf01
1000
;Auto-01;KCF_071ffsf01;0;0;
1040
45.7035375555132
1070
     0
  0
SOLID
  5
2A9
330
2
100
AcDbEntity
  8
0
100
AcDbTrace
 10
144.9000056372324
 20
236.6956039362249
 30
0.0
 11
145.7333389705657
 21
236.6956039362249
 31
0.0
 12
145.3166723038991
 22
239.1956039362249
 32
0.0
 13
145.3166723038991
 23
239.1956039362249
 33
0.0
  0
LINE
  5
2AA
330
2
100
AcDbEntity
  8
0
100
AcDbLine
 10
145.3166723038991
 20
236.6956039362249
 30
0.0
 11
145.3166723038991
 21
234.195603936225
 31
0.0
  0
TEXT
  5
2AB
330
2
100
AcDbEntity
  8
0
100
AcDbText
 10
144.6916723038991
 20
240.5051277457488
 30
0.0
 40
2.5
  1
5
 50
90.0
100
AcDbText
  0
LINE
  5
2AC
330
2
100
AcDbEntity
  8
0
100
AcDbLine
 10
145.3166723038991
 20
244.1956039362249
 30
0.0
 11
145.3166723038991
 21
239.1956039362249
 31
0.0
  0
SOLID
  5
2AD
330
2
100
AcDbEntity
  8
0
100
AcDbTrace
 10
133.1648202318865
 20
247.7115413143856
 30
0.0
 11
133.6039617668357
 21
247.0033046613332
 31
0.0
 12
131.2596810402038
 22
246.0399983830118
 32
0.0
 13
131.2596810402038
 23
246.0399983830118
 33
0.0
  0
SOLID
  5
2AE
330
2
100
AcDbEntity
  8
0
100
AcDbTrace
 10
134.7850870973837
 20
254.3160596208303
 30
0.0
 11
134.7850870973837
 21
253.482726287497
 31
0.0
 12
137.2850870973837
 22
253.8993929541636
 32
0.0
 13
137.2850870973837
 23
253.8993929541636
 33
0.0
  0
LINE
  5
2AF
330
2
100
AcDbEntity
  8
0
100
AcDbLine
 10
145.3166723038991
 20
246.6956039362249
 30
0.0
 11
145.3166723038991
 21
249.1956039362249
 31
0.0
  0
LINE
  5
2B0
330
2
100
AcDbEntity
  8
0
100
AcDbLine
 10
190.6684117245054
 20
226.320603936225
 30
0.0
 11
190.6684117245054
 21
208.0523156127294
 31
0.0
  0
LINE
  5
2B1
330
2
100
AcDbEntity
  8
0
100
AcDbLine
 10
159.6684117245055
 20
226.320603936225
 30
0.0
 11
159.6684117245055
 21
208.0523156127294
 31
0.0
  0
LINE
  5
2B2
330
2
100
AcDbEntity
  8
0
100
AcDbLine
 10
162.1684117245055
 20
209.3023156127294
 30
0.0
 11
188.1684117245055
 21
209.3023156127294
 31
0.0
  0
SOLID
  5
2B3
330
2
100
AcDbEntity
  8
0
100
AcDbTrace
 10
162.1684117245055
 20
209.7189822793961
 30
0.0
 11
162.1684117245055
 21
208.8856489460627
 31
0.0
 12
159.6684117245055
 22
209.3023156127294
 32
0.0
 13
159.6684117245055
 23
209.3023156127294
 33
0.0
  0
SOLID
  5
2B4
330
2
100
AcDbEntity
  8
0
100
AcDbTrace
 10
188.1684117245055
 20
209.7189822793961
 30
0.0
 11
188.1684117245055
 21
208.8856489460627
 31
0.0
 12
190.6684117245054
 22
209.3023156127294
 32
0.0
 13
190.6684117245054
 23
209.3023156127294
 33
0.0
  0
LINE
  5
2B5
330
2
100
AcDbEntity
  8
0
100
AcDbLine
 10
184.5588625736601
 20
213.7901280278985
 30
0.0
 11
179.2999074244559
 21
220.1775621586696
 31
0.0
  0
LINE
  5
2B6
330
2
100
AcDbEntity
  8
0
100
AcDbLine
 10
175.7934117245055
 20
246.695603936225
 30
0.0
 11
200.4233525198547
 21
246.695603936225
 31
0.0
  0
LINE
  5
2B7
330
2
100
AcDbEntity
  8
KCF_071ffsf01
100
AcDbLine
 10
187.9184117245055
 20
224.195603936225
 30
0.0
 11
179.0413950707129
 21
224.1956039362249
 31
0.0
1001
LpCAD
1000
sf01
1000
;Auto-01;KCF_071ffsf01;0;0;
1040
71.07772147555144
1070
     1
1040
40.81132502438696
1040
6.0
  0
LINE
  5
2B8
330
2
100
AcDbEntity
  8
KCF_071ffsf01
100
AcDbLine
 10
162.4184117245055
 20
229.695603936225
 30
0.0
 11
187.9184117245055
 21
229.6956039362249
 31
0.0
1001
LpCAD
1000
sf01
1000
;Auto-01;KCF_071ffsf01;0;0;
1040
71.07772147555144
1070
     1
1040
40.81132502438696
1040
6.0
  0
LINE
  5
2B9
330
2
100
AcDbEntity
  8
KCF_071ffsf01
100
AcDbLine
 10
187.9184117245055
 20
243.6956039362249
 30
0.0
 11
178.6325133396432
 21
243.6956039362249
 31
0.0
1001
LpCAD
1000
sf01
1000
;Auto-01;KCF_071ffsf01;0;0;
1040
68.20110501610526
1070
     1
1040
39.09662316066603
1040
6.0
  0
LINE
  5
2BA
330
2
100
AcDbEntity
  8
KCF_071ffsf01
100
AcDbLine
 10
162.4184117245055
 20
239.1956039362249
 30
0.0
 11
187.9184117245055
 21
239.195603936225
 31
0.0
1001
LpCAD
1000
sf01
1000
;Auto-01;KCF_071ffsf01;0;0;
1040
68.20110501610526
1070
     1
1040
39.09662316066603
1040
6.0
  0
LINE
  5
2BB
330
2
100
AcDbEntity
  8
0
100
AcDbLine
 10
174.5434117245055
 20
221.195603936225
 30
0.0
 11
154.7672074131732
 21
221.195603936225
 31
0.0
  0
LINE
  5
2BC
330
2
100
AcDbEntity
  8
KCF_071ffsf01
100
AcDbLine
 10
171.295428378298
 20
224.195603936225
 30
0.0
 11
162.4184117245055
 21
224.195603936225
 31
0.0
1001
LpCAD
1000
sf01
1000
;Auto-01;KCF_071ffsf01;0;0;
1040
71.07772147555144
1070
     1
1040
40.81132502438696
1040
6.0
  0
SOLID
  5
2BD
330
2
100
AcDbEntity
  8
0
100
AcDbTrace
 10
155.6005407465065
 20
223.695603936225
 30
0.0
 11
156.4338740798399
 21
223.695603936225
 31
0.0
 12
156.0172074131732
 22
221.195603936225
 32
0.0
 13
156.0172074131732
 23
221.195603936225
 33
0.0
  0
SOLID
  5
2BE
330
2
100
AcDbEntity
  8
0
100
AcDbTrace
 10
155.6005407465065
 20
227.195603936225
 30
0.0
 11
156.4338740798399
 21
227.195603936225
 31
0.0
 12
156.0172074131732
 22
229.695603936225
 32
0.0
 13
156.0172074131732
 23
229.695603936225
 33
0.0
  0
LINE
  5
2BF
330
2
100
AcDbEntity
  8
0
100
AcDbLine
 10
161.7934117245055
 20
229.695603936225
 30
0.0
 11
154.7672074131732
 21
229.695603936225
 31
0.0
  0
TEXT
  5
2C0
330
2
100
AcDbEntity
  8
0
100
AcDbText
 10
154.9160169369827
 20
222.4694134600345
 30
0.0
 40
2.5
  1
8,5
 50
90.0
100
AcDbText
  0
LINE
  5
2C1
330
2
100
AcDbEntity
  8
0
100
AcDbLine
 10
156.0172074131732
 20
223.695603936225
 30
0.0
 11
156.0172074131732
 21
227.195603936225
 31
0.0
  0
ARC
  5
2C2
330
2
100
AcDbEntity
  8
KCF_071ffsf01
100
AcDbCircle
 10
162.4184117245055
 20
226.945603936225
 30
0.0
 40
2.75
100
AcDbArc
 50
90.0
 51
270.0
1001
LpCAD
1000
sf01
1000
;Auto-01;KCF_071ffsf01;0;0;
1040
71.07772147555144
1070
     1
1040
40.81132502438696
1040
6.0
  0
SOLID
  5
2C3
330
2
100
AcDbEntity
  8
0
100
AcDbTrace
 10
179.621576769171
 20
220.4424016266151
 30
0.0
 11
178.9782380797408
 21
219.9127226907241
 31
0.0
 12
177.7108706167827
 22
222.1075782269601
 32
0.0
 13
177.7108706167827
 23
222.1075782269601
 33
0.0
  0
ARC
  5
2C4
330
2
100
AcDbEntity
  8
KCF_071ffsf01
100
AcDbCircle
 10
175.1684117245055
 20
225.195603936225
 30
0.0
 40
3.999999999999999
100
AcDbArc
 50
194.4775121859299
 51
345.5224878140701
1001
LpCAD
1000
sf01
1000
;Auto-01;KCF_071ffsf01;0;0;
1040
71.07772147555144
1070
     1
1040
40.81132502438696
1040
6.0
  0
TEXT
  5
2C5
330
2
100
AcDbEntity
  8
0
100
AcDbText
 10
173.0850783911721
 20
209.9273156127294
 30
0.0
 40
2.5
  1
31
100
AcDbText
  0
LINE
  5
2C6
330
2
100
AcDbEntity
  8
0
100
AcDbLine
 10
175.1684117245056
 20
225.195603936225
 30
0.0
 11
177.7108706167827
 21
222.1075782269601
 31
0.0
  0
LINE
  5
2C7
330
2
100
AcDbEntity
  8
KCF_071ffsf01
100
AcDbLine
 10
171.7043101093677
 20
243.6956039362249
 30
0.0
 11
162.4184117245055
 21
243.6956039362249
 31
0.0
1001
LpCAD
1000
sf01
1000
;Auto-01;KCF_071ffsf01;0;0;
1040
68.20110501610526
1070
     1
1040
39.09662316066603
1040
6.0
  0
SOLID
  5
2C8
330
2
100
AcDbEntity
  8
0
100
AcDbTrace
 10
155.6005407465065
 20
246.1956039362249
 30
0.0
 11
156.4338740798399
 21
246.1956039362249
 31
0.0
 12
156.0172074131732
 22
243.6956039362249
 32
0.0
 13
156.0172074131732
 23
243.6956039362249
 33
0.0
  0
SOLID
  5
2C9
330
2
100
AcDbEntity
  8
0
100
AcDbTrace
 10
155.6005407465065
 20
236.6956039362249
 30
0.0
 11
156.4338740798399
 21
236.6956039362249
 31
0.0
 12
156.0172074131732
 22
239.1956039362249
 32
0.0
 13
156.0172074131732
 23
239.1956039362249
 33
0.0
  0
LINE
  5
2CA
330
2
100
AcDbEntity
  8
0
100
AcDbLine
 10
161.7934117245055
 20
243.6956039362249
 30
0.0
 11
154.7672074131732
 21
243.6956039362249
 31
0.0
  0
LINE
  5
2CB
330
2
100
AcDbEntity
  8
0
100
AcDbLine
 10
161.7934117245055
 20
239.1956039362249
 30
0.0
 11
154.7672074131732
 21
239.1956039362249
 31
0.0
  0
LINE
  5
2CC
330
2
100
AcDbEntity
  8
0
100
AcDbLine
 10
156.0172074131732
 20
236.6956039362249
 30
0.0
 11
156.0172074131732
 21
234.1956039362249
 31
0.0
  0
LINE
  5
2CD
330
2
100
AcDbEntity
  8
0
100
AcDbLine
 10
156.0172074131732
 20
239.1956039362249
 30
0.0
 11
156.0172074131732
 21
243.6956039362249
 31
0.0
  0
ARC
  5
2CE
330
2
100
AcDbEntity
  8
KCF_071ffsf01
100
AcDbCircle
 10
162.4184117245055
 20
241.4456039362249
 30
0.0
 40
2.25
100
AcDbArc
 50
90.0
 51
270.0
1001
LpCAD
1000
sf01
1000
;Auto-01;KCF_071ffsf01;0;0;
1040
68.20110501610526
1070
     1
1040
39.09662316066603
1040
6.0
  0
TEXT
  5
2CF
330
2
100
AcDbEntity
  8
0
100
AcDbText
 10
154.9160169369827
 20
249.0825086981297
 30
0.0
 40
2.5
  1
4,5
 50
90.0
100
AcDbText
  0
LINE
  5
2D0
330
2
100
AcDbEntity
  8
0
100
AcDbLine
 10
156.0172074131732
 20
246.1956039362249
 30
0.0
 11
156.0172074131732
 21
255.3027467933678
 31
0.0
  0
LINE
  5
2D1
330
2
100
AcDbEntity
  8
0
100
AcDbLine
 10
175.1684117245054
 20
243.1956039362249
 30
0.0
 11
172.7833716543248
 21
245.7571628099643
 31
0.0
  0
ARC
  5
2D2
330
2
100
AcDbEntity
  8
KCF_071ffsf01
100
AcDbCircle
 10
175.1684117245055
 20
243.1956039362249
 30
0.0
 40
3.500000000000009
100
AcDbArc
 50
8.21321070173796
 51
171.786789298262
1001
LpCAD
1000
sf01
1000
;Auto-01;KCF_071ffsf01;0;0;
1040
68.20110501610526
1070
     1
1040
39.09662316066603
1040
6.0
  0
SOLID
  5
2D3
330
2
100
AcDbEntity
  8
0
100
AcDbTrace
 10
171.3847190891649
 20
247.8707810614663
 30
0.0
 11
170.7748241192269
 21
247.30291437809
 31
0.0
 12
172.7833716543248
 22
245.7571628099643
 32
0.0
 13
172.7833716543248
 23
245.7571628099643
 33
0.0
  0
LINE
  5
2D4
330
2
100
AcDbEntity
  8
0
100
AcDbLine
 10
199.1733525198547
 20
232.1956039362249
 30
0.0
 11
199.1733525198547
 21
234.6956039362249
 31
0.0
  0
TEXT
  5
2D5
330
2
100
AcDbEntity
  8
0
100
AcDbText
 10
198.0721620436642
 20
212.9753658409869
 30
0.0
 40
2.5
  1
5,5
 50
90.0
100
AcDbText
  0
LINE
  5
2D6
330
2
100
AcDbEntity
  8
0
100
AcDbLine
 10
188.5434117245054
 20
224.195603936225
 30
0.0
 11
200.4233525198547
 21
224.1956039362249
 31
0.0
  0
LINE
  5
2D7
330
2
100
AcDbEntity
  8
0
100
AcDbLine
 10
188.5434117245054
 20
229.6956039362249
 30
0.0
 11
200.4233525198547
 21
229.6956039362249
 31
0.0
  0
TEXT
  5
2D8
330
2
100
AcDbEntity
  8
0
100
AcDbText
 10
181.617370612294
 20
218.3461123293476
 30
0.0
 40
2.500000000000029
  1
R4
 50
309.4655922524495
100
AcDbText
  0
ARC
  5
2D9
330
2
100
AcDbEntity
  8
KCF_071ffsf01
100
AcDbCircle
 10
187.9184117245055
 20
226.945603936225
 30
0.0
 40
2.749999999999985
100
AcDbArc
 50
270.0
 51
90.0
1001
LpCAD
1000
sf01
1000
;Auto-01;KCF_071ffsf01;0;0;
1040
71.07772147555144
1070
     1
1040
40.81132502438696
1040
6.0
  0
LINE
  5
2DA
330
2
100
AcDbEntity
  8
0
100
AcDbLine
 10
199.1733525198547
 20
221.695603936225
 30
0.0
 11
199.1733525198547
 21
212.7075086981297
 31
0.0
  0
LINE
  5
2DB
330
2
100
AcDbEntity
  8
0
100
AcDbLine
 10
207.7852052660661
 20
227.1956039362249
 30
0.0
 11
207.7852052660661
 21
219.195603936225
 31
0.0
  0
SOLID
  5
2DC
330
2
100
AcDbEntity
  8
0
100
AcDbTrace
 10
207.3685385993994
 20
219.195603936225
 30
0.0
 11
208.2018719327327
 21
219.195603936225
 31
0.0
 12
207.7852052660661
 22
216.695603936225
 32
0.0
 13
207.7852052660661
 23
216.695603936225
 33
0.0
  0
TEXT
  5
2DD
330
2
100
AcDbEntity
  8
0
100
AcDbText
 10
207.1602052660661
 20
220.993222983844
 30
0.0
 40
2.5
  1
13
 50
90.0
100
AcDbText
  0
LINE
  5
2DE
330
2
100
AcDbEntity
  8
0
100
AcDbLine
 10
199.1733525198547
 20
229.6956039362249
 30
0.0
 11
199.1733525198547
 21
224.1956039362249
 31
0.0
  0
SOLID
  5
2DF
330
2
100
AcDbEntity
  8
0
100
AcDbTrace
 10
198.756685853188
 20
221.695603936225
 30
0.0
 11
199.5900191865213
 21
221.695603936225
 31
0.0
 12
199.1733525198547
 22
224.1956039362249
 32
0.0
 13
199.1733525198547
 23
224.1956039362249
 33
0.0
  0
SOLID
  5
2E0
330
2
100
AcDbEntity
  8
0
100
AcDbTrace
 10
198.756685853188
 20
232.1956039362249
 30
0.0
 11
199.5900191865213
 21
232.1956039362249
 31
0.0
 12
199.1733525198547
 22
229.6956039362249
 32
0.0
 13
199.1733525198547
 23
229.6956039362249
 33
0.0
  0
SOLID
  5
2E1
330
2
100
AcDbEntity
  8
0
100
AcDbTrace
 10
207.3685385993994
 20
227.1956039362249
 30
0.0
 11
208.2018719327327
 21
227.1956039362249
 31
0.0
 12
207.7852052660661
 22
229.6956039362249
 32
0.0
 13
207.7852052660661
 23
229.6956039362249
 33
0.0
  0
TEXT
  5
2E2
330
2
100
AcDbEntity
  8
0
100
AcDbText
 10
198.0721620436642
 20
250.4872706028916
 30
0.0
 40
2.5
  1
7,5
 50
90.0
100
AcDbText
  0
LINE
  5
2E3
330
2
100
AcDbEntity
  8
0
100
AcDbLine
 10
188.5434117245054
 20
239.195603936225
 30
0.0
 11
200.4233525198547
 21
239.195603936225
 31
0.0
  0
ARC
  5
2E4
330
2
100
AcDbEntity
  8
KCF_071ffsf01
100
AcDbCircle
 10
187.9184117245055
 20
241.4456039362249
 30
0.0
 40
2.249999999999985
100
AcDbArc
 50
270.0
 51
90.0
1001
LpCAD
1000
sf01
1000
;Auto-01;KCF_071ffsf01;0;0;
1040
68.20110501610526
1070
     1
1040
39.09662316066603
1040
6.0
  0
SOLID
  5
2E5
330
2
100
AcDbEntity
  8
0
100
AcDbTrace
 10
198.756685853188
 20
244.195603936225
 30
0.0
 11
199.5900191865213
 21
244.195603936225
 31
0.0
 12
199.1733525198547
 22
246.695603936225
 32
0.0
 13
199.1733525198547
 23
246.695603936225
 33
0.0
  0
TEXT
  5
2E6
330
2
100
AcDbEntity
  8
0
100
AcDbText
 10
207.1602052660661
 20
242.9932229838441
 30
0.0
 40
2.5
  1
12
 50
90.0
100
AcDbText
  0
LINE
  5
2E7
330
2
100
AcDbEntity
  8
0
100
AcDbLine
 10
207.7852052660661
 20
248.695603936225
 30
0.0
 11
207.7852052660661
 21
241.695603936225
 31
0.0
  0
SOLID
  5
2E8
330
2
100
AcDbEntity
  8
0
100
AcDbTrace
 10
198.756685853188
 20
241.695603936225
 30
0.0
 11
199.5900191865213
 21
241.695603936225
 31
0.0
 12
199.1733525198547
 22
239.195603936225
 32
0.0
 13
199.1733525198547
 23
239.195603936225
 33
0.0
  0
LINE
  5
2E9
330
2
100
AcDbEntity
  8
0
100
AcDbLine
 10
199.1733525198547
 20
241.695603936225
 30
0.0
 11
199.1733525198547
 21
244.195603936225
 31
0.0
  0
SOLID
  5
2EA
330
2
100
AcDbEntity
  8
0
100
AcDbTrace
 10
207.3685385993994
 20
241.695603936225
 30
0.0
 11
208.2018719327328
 21
241.695603936225
 31
0.0
 12
207.7852052660661
 22
239.195603936225
 32
0.0
 13
207.7852052660661
 23
239.195603936225
 33
0.0
  0
SOLID
  5
2EB
330
2
100
AcDbEntity
  8
0
100
AcDbTrace
 10
207.3685385993994
 20
248.695603936225
 30
0.0
 11
208.2018719327328
 21
248.695603936225
 31
0.0
 12
207.7852052660661
 22
251.1956039362249
 32
0.0
 13
207.7852052660661
 23
251.1956039362249
 33
0.0
  0
SOLID
  5
2EC
330
2
100
AcDbEntity
  8
0
100
AcDbTrace
 10
94.28508709738371
 20
262.2183003518062
 30
0.0
 11
94.28508709738371
 21
261.3849670184729
 31
0.0
 12
96.78508709738371
 22
261.8016336851396
 32
0.0
 13
96.78508709738371
 23
261.8016336851396
 33
0.0
  0
LINE
  5
2ED
330
2
100
AcDbEntity
  8
0
100
AcDbLine
 10
187.6684117245055
 20
259.2219201890681
 30
0.0
 11
162.6684117245055
 21
259.2219201890681
 31
0.0
  0
SOLID
  5
2EE
330
2
100
AcDbEntity
  8
0
100
AcDbTrace
 10
162.6684117245055
 20
259.6385868557347
 30
0.0
 11
162.6684117245055
 21
258.8052535224014
 31
0.0
 12
160.1684117245055
 22
259.2219201890681
 32
0.0
 13
160.1684117245055
 23
259.2219201890681
 33
0.0
  0
TEXT
  5
2EF
330
2
100
AcDbEntity
  8
0
100
AcDbText
 10
172.7874593435531
 20
259.8469201890681
 30
0.0
 40
2.5
  1
30
100
AcDbText
  0
SOLID
  5
2F0
330
2
100
AcDbEntity
  8
0
100
AcDbTrace
 10
187.6684117245055
 20
259.6385868557347
 30
0.0
 11
187.6684117245055
 21
258.8052535224014
 31
0.0
 12
190.1684117245055
 22
259.2219201890681
 32
0.0
 13
190.1684117245055
 23
259.2219201890681
 33
0.0
  0
LINE
  5
2F1
330
2
100
AcDbEntity
  8
0
100
AcDbLine
 10
329.0966990803807
 20
255.6152971553668
 30
0.0
 11
354.0966990803806
 21
255.6152971553668
 31
0.0
  0
LINE
  5
2F2
330
2
100
AcDbEntity
  8
0
100
AcDbLine
 10
341.5966990803806
 20
243.195603936225
 30
0.0
 11
344.8162594042459
 21
245.5692996456606
 31
0.0
  0
LINE
  5
2F3
330
2
100
AcDbEntity
  8
0
100
AcDbLine
 10
328.5966990803807
 20
202.535236950655
 30
0.0
 11
354.5966990803806
 21
202.535236950655
 31
0.0
  0
LINE
  5
2F4
330
2
100
AcDbEntity
  8
0
100
AcDbLine
 10
342.2216990803807
 20
220.6956039362249
 30
0.0
 11
365.767292245703
 21
220.6956039362249
 31
0.0
  0
LINE
  5
2F5
330
2
100
AcDbEntity
  8
0
100
AcDbLine
 10
342.2216990803807
 20
229.695603936225
 30
0.0
 11
365.767292245703
 21
229.695603936225
 31
0.0
  0
ARC
  5
2F6
330
2
100
AcDbEntity
  8
KCF_071ffsf01
100
AcDbCircle
 10
341.5966990803807
 20
243.195603936225
 30
0.0
 40
3.999999999999992
100
AcDbArc
 50
34.22886632781267
 51
145.7711336721873
1001
LpCAD
1000
sf01
1000
;Auto-01;KCF_071ffsf01;0;0;
1040
67.48264894822381
1070
     0
  0
ARC
  5
2F7
330
2
100
AcDbEntity
  8
KCF_071ffsf01
100
AcDbCircle
 10
341.5966990803806
 20
243.195603936225
 30
0.0
 40
4.000000000000009
100
AcDbArc
 50
214.2288663278123
 51
325.7711336721877
1001
LpCAD
1000
sf01
1000
;Auto-01;KCF_071ffsf01;0;0;
1040
67.48264894822381
1070
     0
  0
ARC
  5
2F8
330
2
100
AcDbEntity
  8
KCF_071ffsf01
100
AcDbCircle
 10
341.5966990803807
 20
225.1956039362249
 30
0.0
 40
4.499999999999957
100
AcDbArc
 50
217.6698869643297
 51
322.3301130356702
1001
LpCAD
1000
sf01
1000
;Auto-01;KCF_071ffsf01;0;0;
1040
67.48264894822381
1070
     0
  0
ARC
  5
2F9
330
2
100
AcDbEntity
  8
KCF_071ffsf01
100
AcDbCircle
 10
341.5966990803806
 20
225.195603936225
 30
0.0
 40
4.499999999999936
100
AcDbArc
 50
37.66988696432795
 51
142.3301130356721
1001
LpCAD
1000
sf01
1000
;Auto-01;KCF_071ffsf01;0;0;
1040
67.48264894822381
1070
     0
  0
LINE
  5
2FA
330
2
100
AcDbEntity
  8
0
100
AcDbLine
 10
246.3305316499982
 20
245.820603936225
 30
0.0
 11
246.3305316499982
 21
263.200402995441
 31
0.0
  0
LINE
  5
2FB
330
2
100
AcDbEntity
  8
0
100
AcDbLine
 10
214.3305316499982
 20
245.820603936225
 30
0.0
 11
214.3305316499982
 21
263.200402995441
 31
0.0
  0
TEXT
  5
2FC
330
2
100
AcDbEntity
  8
0
100
AcDbText
 10
238.0304226950247
 20
253.607732260936
 30
0.0
 40
2.499999999999993
  1
R6
 50
44.3894554454708
 51
359.9999999999997
100
AcDbText
  0
LINE
  5
2FD
330
2
100
AcDbEntity
  8
0
100
AcDbLine
 10
242.2320483502813
 20
256.8461401615317
 30
0.0
 11
236.4046438186915
 21
251.141624568726
 31
0.0
  0
LINE
  5
2FE
330
2
100
AcDbEntity
  8
0
100
AcDbLine
 10
302.1917411317552
 20
244.820603936225
 30
0.0
 11
302.1917411317552
 21
259.7123536393935
 31
0.0
  0
LINE
  5
2FF
330
2
100
AcDbEntity
  8
0
100
AcDbLine
 10
272.1917411317552
 20
244.820603936225
 30
0.0
 11
272.1917411317552
 21
259.7123536393935
 31
0.0
  0
LINE
  5
300
330
2
100
AcDbEntity
  8
0
100
AcDbLine
 10
326.5966990803807
 20
243.820603936225
 30
0.0
 11
326.5966990803807
 21
256.8652971553668
 31
0.0
  0
TEXT
  5
301
330
2
100
AcDbEntity
  8
0
100
AcDbText
 10
275.7613316178769
 20
254.336798396432
 30
0.0
 40
2.500000000000002
  1
R5
 50
320.7643150552365
 51
359.9999999999999
100
AcDbText
  0
LINE
  5
302
330
2
100
AcDbEntity
  8
0
100
AcDbLine
 10
275.0663343702008
 20
254.0974260494341
 30
0.0
 11
281.3826108961816
 21
248.9394426672681
 31
0.0
  0
LINE
  5
303
330
2
100
AcDbEntity
  8
0
100
AcDbLine
 10
274.1917411317552
 20
201.6966053172719
 30
0.0
 11
300.1917411317552
 21
201.6966053172719
 31
0.0
  0
TEXT
  5
304
330
2
100
AcDbEntity
  8
0
100
AcDbText
 10
276.2257739424784
 20
208.2278816187704
 30
0.0
 40
2.500000000000044
  1
R5,5
 50
58.77927745113922
 51
359.9999999999996
100
AcDbText
  0
LINE
  5
305
330
2
100
AcDbEntity
  8
0
100
AcDbLine
 10
276.9669397421312
 20
207.3262225828471
 30
0.0
 11
283.045050405245
 21
217.3541891688925
 31
0.0
  0
LINE
  5
306
330
2
100
AcDbEntity
  8
KCF_071ffsf01
100
AcDbLine
 10
282.5819689031087
 20
221.195603936225
 30
0.0
 11
274.6917411317552
 21
221.1956039362249
 31
0.0
1001
LpCAD
1000
sf01
1000
;Auto-01;KCF_071ffsf01;0;0;
1040
69.33140621619211
1070
     0
  0
LINE
  5
307
330
2
100
AcDbEntity
  8
KCF_071ffsf01
100
AcDbLine
 10
274.6917411317552
 20
227.1956039362249
 30
0.0
 11
282.5819689031087
 21
227.1956039362249
 31
0.0
1001
LpCAD
1000
sf01
1000
;Auto-01;KCF_071ffsf01;0;0;
1040
69.33140621619211
1070
     0
  0
LINE
  5
308
330
2
100
AcDbEntity
  8
KCF_071ffsf01
100
AcDbLine
 10
282.861614112833
 20
246.695603936225
 30
0.0
 11
274.6917411317552
 21
246.695603936225
 31
0.0
1001
LpCAD
1000
sf01
1000
;Auto-01;KCF_071ffsf01;0;0;
1040
69.33140621619211
1070
     0
  0
LINE
  5
309
330
2
100
AcDbEntity
  8
KCF_071ffsf01
100
AcDbLine
 10
274.6917411317552
 20
241.695603936225
 30
0.0
 11
282.861614112833
 21
241.695603936225
 31
0.0
1001
LpCAD
1000
sf01
1000
;Auto-01;KCF_071ffsf01;0;0;
1040
69.33140621619211
1070
     0
  0
LINE
  5
30A
330
2
100
AcDbEntity
  8
0
100
AcDbLine
 10
246.8305316499982
 20
222.570603936225
 30
0.0
 11
246.8305316499982
 21
203.5296019452989
 31
0.0
  0
LINE
  5
30B
330
2
100
AcDbEntity
  8
0
100
AcDbLine
 10
213.8305316499982
 20
222.570603936225
 30
0.0
 11
213.8305316499982
 21
203.5296019452989
 31
0.0
  0
TEXT
  5
30C
330
2
100
AcDbEntity
  8
0
100
AcDbText
 10
238.2954377766084
 20
214.3033941052701
 30
0.0
 40
2.500000000000007
  1
R6,5
 50
306.5586386520892
 51
359.9999999999998
100
AcDbText
  0
LINE
  5
30D
330
2
100
AcDbEntity
  8
0
100
AcDbLine
 10
242.6759869490954
 20
206.5473396088749
 30
0.0
 11
235.6913382014729
 21
215.9663748543889
 31
0.0
  0
LINE
  5
30E
330
2
100
AcDbEntity
  8
0
100
AcDbLine
 10
271.6917411317552
 20
223.5706039362249
 30
0.0
 11
271.6917411317552
 21
200.4466053172719
 31
0.0
  0
SOLID
  5
30F
330
2
100
AcDbEntity
  8
0
100
AcDbTrace
 10
244.3305316499982
 20
205.1962686119656
 30
0.0
 11
244.3305316499982
 21
204.3629352786322
 31
0.0
 12
246.8305316499982
 22
204.7796019452989
 32
0.0
 13
246.8305316499982
 23
204.7796019452989
 33
0.0
  0
TEXT
  5
310
330
2
100
AcDbEntity
  8
0
100
AcDbText
 10
227.9495792690458
 20
205.4046019452989
 30
0.0
 40
2.5
  1
33
100
AcDbText
  0
LINE
  5
311
330
2
100
AcDbEntity
  8
0
100
AcDbLine
 10
216.3305316499982
 20
204.7796019452989
 30
0.0
 11
244.3305316499982
 21
204.7796019452989
 31
0.0
  0
SOLID
  5
312
330
2
100
AcDbEntity
  8
0
100
AcDbTrace
 10
216.3305316499982
 20
205.1962686119656
 30
0.0
 11
216.3305316499982
 21
204.3629352786322
 31
0.0
 12
213.8305316499982
 22
204.7796019452989
 32
0.0
 13
213.8305316499982
 23
204.7796019452989
 33
0.0
  0
SOLID
  5
313
330
2
100
AcDbEntity
  8
0
100
AcDbTrace
 10
274.1917411317552
 20
202.1132719839386
 30
0.0
 11
274.1917411317552
 21
201.2799386506053
 31
0.0
 12
271.6917411317552
 22
201.6966053172719
 32
0.0
 13
271.6917411317552
 23
201.6966053172719
 33
0.0
  0
LINE
  5
314
330
2
100
AcDbEntity
  8
0
100
AcDbLine
 10
244.4555316499982
 20
242.695603936225
 30
0.0
 11
257.9799749619772
 21
242.695603936225
 31
0.0
  0
LINE
  5
315
330
2
100
AcDbEntity
  8
0
100
AcDbLine
 10
244.4555316499982
 20
247.6956039362249
 30
0.0
 11
257.9799749619772
 21
247.6956039362249
 31
0.0
  0
LINE
  5
316
330
2
100
AcDbEntity
  8
0
100
AcDbLine
 10
244.4555316499982
 20
220.1956039362249
 30
0.0
 11
257.9799749619772
 21
220.1956039362249
 31
0.0
  0
LINE
  5
317
330
2
100
AcDbEntity
  8
0
100
AcDbLine
 10
244.4555316499982
 20
226.1956039362249
 30
0.0
 11
257.9799749619772
 21
226.1956039362249
 31
0.0
  0
ARC
  5
318
330
2
100
AcDbEntity
  8
KCF_071ffsf01
100
AcDbCircle
 10
243.8305316499981
 20
245.1956039362249
 30
0.0
 40
2.499999999999992
100
AcDbArc
 50
270.0
 51
90.0
1001
LpCAD
1000
sf01
1000
;Auto-01;KCF_071ffsf01;0;0;
1040
75.27504053044637
1070
     0
  0
ARC
  5
319
330
2
100
AcDbEntity
  8
KCF_071ffsf01
100
AcDbCircle
 10
243.8305316499981
 20
223.195603936225
 30
0.0
 40
2.999999999999992
100
AcDbArc
 50
270.0
 51
90.0
1001
LpCAD
1000
sf01
1000
;Auto-01;KCF_071ffsf01;0;0;
1040
78.15219064929488
1070
     0
  0
ARC
  5
31A
330
2
100
AcDbEntity
  8
KCF_071ffsf01
100
AcDbCircle
 10
230.3305316499981
 20
223.1956039362249
 30
0.0
 40
6.500000000000015
100
AcDbArc
 50
27.48642625038239
 51
152.5135737496176
1001
LpCAD
1000
sf01
1000
;Auto-01;KCF_071ffsf01;0;0;
1040
78.15219064929488
1070
     0
  0
ARC
  5
31B
330
2
100
AcDbEntity
  8
KCF_071ffsf01
100
AcDbCircle
 10
230.3305316499982
 20
223.195603936225
 30
0.0
 40
6.500000000000014
100
AcDbArc
 50
207.4864262503808
 51
332.5135737496192
1001
LpCAD
1000
sf01
1000
;Auto-01;KCF_071ffsf01;0;0;
1040
78.15219064929488
1070
     0
  0
ARC
  5
31C
330
2
100
AcDbEntity
  8
KCF_071ffsf01
100
AcDbCircle
 10
216.8305316499981
 20
223.195603936225
 30
0.0
 40
3.0
100
AcDbArc
 50
90.0
 51
270.0
1001
LpCAD
1000
sf01
1000
;Auto-01;KCF_071ffsf01;0;0;
1040
78.15219064929488
1070
     0
  0
LINE
  5
31D
330
2
100
AcDbEntity
  8
KCF_071ffsf01
100
AcDbLine
 10
224.5642503526628
 20
220.1956039362249
 30
0.0
 11
216.8305316499981
 21
220.1956039362249
 31
0.0
1001
LpCAD
1000
sf01
1000
;Auto-01;KCF_071ffsf01;0;0;
1040
78.15219064929488
1070
     0
  0
LINE
  5
31E
330
2
100
AcDbEntity
  8
KCF_071ffsf01
100
AcDbLine
 10
216.8305316499981
 20
226.1956039362249
 30
0.0
 11
224.5642503526628
 21
226.1956039362249
 31
0.0
1001
LpCAD
1000
sf01
1000
;Auto-01;KCF_071ffsf01;0;0;
1040
78.15219064929488
1070
     0
  0
LINE
  5
31F
330
2
100
AcDbEntity
  8
0
100
AcDbLine
 10
230.3305316499982
 20
223.195603936225
 30
0.0
 11
234.2022252705076
 21
217.9744940437879
 31
0.0
  0
LINE
  5
320
330
2
100
AcDbEntity
  8
KCF_071ffsf01
100
AcDbLine
 10
243.8305316499981
 20
220.1956039362249
 30
0.0
 11
236.0968129473336
 21
220.1956039362249
 31
0.0
1001
LpCAD
1000
sf01
1000
;Auto-01;KCF_071ffsf01;0;0;
1040
78.15219064929488
1070
     0
  0
SOLID
  5
321
330
2
100
AcDbEntity
  8
0
100
AcDbTrace
 10
236.0260247330393
 20
216.2145603428831
 30
0.0
 11
235.3566516699064
 21
215.7181893658947
 31
0.0
 12
234.2022252705076
 22
217.9744940437879
 32
0.0
 13
234.2022252705076
 23
217.9744940437879
 33
0.0
  0
LINE
  5
322
330
2
100
AcDbEntity
  8
KCF_071ffsf01
100
AcDbLine
 10
236.0968129473335
 20
226.1956039362249
 30
0.0
 11
243.8305316499981
 21
226.1956039362249
 31
0.0
1001
LpCAD
1000
sf01
1000
;Auto-01;KCF_071ffsf01;0;0;
1040
78.15219064929488
1070
     0
  0
ARC
  5
323
330
2
100
AcDbEntity
  8
KCF_071ffsf01
100
AcDbCircle
 10
230.3305316499982
 20
245.1956039362249
 30
0.0
 40
5.999999999999996
100
AcDbArc
 50
204.6243183521636
 51
335.3756816478365
1001
LpCAD
1000
sf01
1000
;Auto-01;KCF_071ffsf01;0;0;
1040
75.27504053044637
1070
     0
  0
ARC
  5
324
330
2
100
AcDbEntity
  8
KCF_071ffsf01
100
AcDbCircle
 10
230.3305316499982
 20
245.1956039362249
 30
0.0
 40
5.999999999999998
100
AcDbArc
 50
24.62431835216359
 51
155.3756816478364
1001
LpCAD
1000
sf01
1000
;Auto-01;KCF_071ffsf01;0;0;
1040
75.27504053044637
1070
     0
  0
ARC
  5
325
330
2
100
AcDbEntity
  8
KCF_071ffsf01
100
AcDbCircle
 10
216.8305316499981
 20
245.1956039362249
 30
0.0
 40
2.5
100
AcDbArc
 50
90.0
 51
270.0
1001
LpCAD
1000
sf01
1000
;Auto-01;KCF_071ffsf01;0;0;
1040
75.27504053044637
1070
     0
  0
LINE
  5
326
330
2
100
AcDbEntity
  8
KCF_071ffsf01
100
AcDbLine
 10
216.8305316499981
 20
242.695603936225
 30
0.0
 11
224.8761755926803
 21
242.695603936225
 31
0.0
1001
LpCAD
1000
sf01
1000
;Auto-01;KCF_071ffsf01;0;0;
1040
75.27504053044637
1070
     0
  0
LINE
  5
327
330
2
100
AcDbEntity
  8
KCF_071ffsf01
100
AcDbLine
 10
224.8761755926803
 20
247.6956039362249
 30
0.0
 11
216.8305316499981
 21
247.6956039362249
 31
0.0
1001
LpCAD
1000
sf01
1000
;Auto-01;KCF_071ffsf01;0;0;
1040
75.27504053044637
1070
     0
  0
LINE
  5
328
330
2
100
AcDbEntity
  8
KCF_071ffsf01
100
AcDbLine
 10
235.784887707316
 20
242.695603936225
 30
0.0
 11
243.8305316499981
 21
242.695603936225
 31
0.0
1001
LpCAD
1000
sf01
1000
;Auto-01;KCF_071ffsf01;0;0;
1040
75.27504053044637
1070
     0
  0
LINE
  5
329
330
2
100
AcDbEntity
  8
KCF_071ffsf01
100
AcDbLine
 10
243.8305316499981
 20
247.6956039362249
 30
0.0
 11
235.784887707316
 21
247.6956039362249
 31
0.0
1001
LpCAD
1000
sf01
1000
;Auto-01;KCF_071ffsf01;0;0;
1040
75.27504053044637
1070
     0
  0
SOLID
  5
32A
330
2
100
AcDbEntity
  8
0
100
AcDbTrace
 10
236.1131722190591
 20
251.4393751652306
 30
0.0
 11
236.696115418324
 21
250.8438739722214
 31
0.0
 12
234.618140239664
 22
249.3927949709315
 32
0.0
 13
234.618140239664
 23
249.3927949709315
 33
0.0
  0
LINE
  5
32B
330
2
100
AcDbEntity
  8
0
100
AcDbLine
 10
230.3305316499981
 20
245.1956039362249
 30
0.0
 11
234.618140239664
 21
249.3927949709315
 31
0.0
  0
LINE
  5
32C
330
2
100
AcDbEntity
  8
0
100
AcDbLine
 10
256.7299749619772
 20
226.1956039362249
 30
0.0
 11
256.7299749619772
 21
220.1956039362249
 31
0.0
  0
LINE
  5
32D
330
2
100
AcDbEntity
  8
0
100
AcDbLine
 10
256.7299749619772
 20
217.695603936225
 30
0.0
 11
256.7299749619772
 21
215.195603936225
 31
0.0
  0
SOLID
  5
32E
330
2
100
AcDbEntity
  8
0
100
AcDbTrace
 10
256.3133082953105
 20
217.695603936225
 30
0.0
 11
257.1466416286438
 21
217.695603936225
 31
0.0
 12
256.7299749619772
 22
220.1956039362249
 32
0.0
 13
256.7299749619772
 23
220.1956039362249
 33
0.0
  0
TEXT
  5
32F
330
2
100
AcDbEntity
  8
0
100
AcDbText
 10
256.1049749619772
 20
222.0051277457488
 30
0.0
 40
2.500000000000028
  1
6
 50
90.0
100
AcDbText
  0
SOLID
  5
330
330
2
100
AcDbEntity
  8
0
100
AcDbTrace
 10
256.3133082953105
 20
228.6956039362249
 30
0.0
 11
257.1466416286438
 21
228.6956039362249
 31
0.0
 12
256.7299749619772
 22
226.1956039362249
 32
0.0
 13
256.7299749619772
 23
226.1956039362249
 33
0.0
  0
LINE
  5
331
330
2
100
AcDbEntity
  8
0
100
AcDbLine
 10
256.7299749619772
 20
228.6956039362249
 30
0.0
 11
256.7299749619772
 21
231.195603936225
 31
0.0
  0
LINE
  5
332
330
2
100
AcDbEntity
  8
0
100
AcDbLine
 10
266.4653075242697
 20
227.195603936225
 30
0.0
 11
266.4653075242697
 21
221.195603936225
 31
0.0
  0
ARC
  5
333
330
2
100
AcDbEntity
  8
KCF_071ffsf01
100
AcDbCircle
 10
274.6917411317552
 20
224.1956039362249
 30
0.0
 40
3.0
100
AcDbArc
 50
90.0
 51
270.0
1001
LpCAD
1000
sf01
1000
;Auto-01;KCF_071ffsf01;0;0;
1040
69.33140621619211
1070
     0
  0
LINE
  5
334
330
2
100
AcDbEntity
  8
0
100
AcDbLine
 10
274.0667411317552
 20
221.1956039362249
 30
0.0
 11
265.2153075242697
 21
221.195603936225
 31
0.0
  0
SOLID
  5
335
330
2
100
AcDbEntity
  8
0
100
AcDbTrace
 10
266.048640857603
 20
218.695603936225
 30
0.0
 11
266.8819741909364
 21
218.695603936225
 31
0.0
 12
266.4653075242697
 22
221.195603936225
 32
0.0
 13
266.4653075242697
 23
221.195603936225
 33
0.0
  0
LINE
  5
336
330
2
100
AcDbEntity
  8
0
100
AcDbLine
 10
266.4653075242697
 20
218.695603936225
 30
0.0
 11
266.4653075242697
 21
216.1956039362249
 31
0.0
  0
LINE
  5
337
330
2
100
AcDbEntity
  8
0
100
AcDbLine
 10
274.0667411317552
 20
227.1956039362249
 30
0.0
 11
265.2153075242697
 21
227.195603936225
 31
0.0
  0
TEXT
  5
338
330
2
100
AcDbEntity
  8
0
100
AcDbText
 10
265.8403075242697
 20
223.0051277457488
 30
0.0
 40
2.5
  1
6
 50
90.0
100
AcDbText
  0
SOLID
  5
339
330
2
100
AcDbEntity
  8
0
100
AcDbTrace
 10
266.048640857603
 20
229.695603936225
 30
0.0
 11
266.8819741909364
 21
229.695603936225
 31
0.0
 12
266.4653075242697
 22
227.195603936225
 32
0.0
 13
266.4653075242697
 23
227.195603936225
 33
0.0
  0
LINE
  5
33A
330
2
100
AcDbEntity
  8
0
100
AcDbLine
 10
266.4653075242697
 20
229.695603936225
 30
0.0
 11
266.4653075242697
 21
232.195603936225
 31
0.0
  0
TEXT
  5
33B
330
2
100
AcDbEntity
  8
0
100
AcDbText
 10
256.1049749619772
 20
244.0051277457488
 30
0.0
 40
2.500000000000028
  1
5
 50
90.0
100
AcDbText
  0
LINE
  5
33C
330
2
100
AcDbEntity
  8
0
100
AcDbLine
 10
256.7299749619772
 20
247.6956039362249
 30
0.0
 11
256.7299749619772
 21
242.695603936225
 31
0.0
  0
LINE
  5
33D
330
2
100
AcDbEntity
  8
0
100
AcDbLine
 10
256.7299749619772
 20
240.195603936225
 30
0.0
 11
256.7299749619772
 21
237.695603936225
 31
0.0
  0
SOLID
  5
33E
330
2
100
AcDbEntity
  8
0
100
AcDbTrace
 10
256.3133082953105
 20
240.195603936225
 30
0.0
 11
257.1466416286438
 21
240.195603936225
 31
0.0
 12
256.7299749619772
 22
242.695603936225
 32
0.0
 13
256.7299749619772
 23
242.695603936225
 33
0.0
  0
LINE
  5
33F
330
2
100
AcDbEntity
  8
0
100
AcDbLine
 10
256.7299749619772
 20
250.195603936225
 30
0.0
 11
256.7299749619772
 21
252.695603936225
 31
0.0
  0
SOLID
  5
340
330
2
100
AcDbEntity
  8
0
100
AcDbTrace
 10
256.3133082953105
 20
250.195603936225
 30
0.0
 11
257.1466416286438
 21
250.195603936225
 31
0.0
 12
256.7299749619772
 22
247.6956039362249
 32
0.0
 13
256.7299749619772
 23
247.6956039362249
 33
0.0
  0
TEXT
  5
341
330
2
100
AcDbEntity
  8
0
100
AcDbText
 10
265.8403075242697
 20
243.0051277457488
 30
0.0
 40
2.5
  1
5
 50
90.0
100
AcDbText
  0
LINE
  5
342
330
2
100
AcDbEntity
  8
0
100
AcDbLine
 10
266.4653075242697
 20
246.695603936225
 30
0.0
 11
266.4653075242697
 21
241.695603936225
 31
0.0
  0
ARC
  5
343
330
2
100
AcDbEntity
  8
KCF_071ffsf01
100
AcDbCircle
 10
274.6917411317552
 20
244.195603936225
 30
0.0
 40
2.5
100
AcDbArc
 50
90.0
 51
270.0
1001
LpCAD
1000
sf01
1000
;Auto-01;KCF_071ffsf01;0;0;
1040
69.33140621619211
1070
     0
  0
LINE
  5
344
330
2
100
AcDbEntity
  8
0
100
AcDbLine
 10
274.0667411317552
 20
241.695603936225
 30
0.0
 11
265.2153075242697
 21
241.695603936225
 31
0.0
  0
LINE
  5
345
330
2
100
AcDbEntity
  8
0
100
AcDbLine
 10
266.4653075242697
 20
239.1956039362249
 30
0.0
 11
266.4653075242697
 21
236.6956039362249
 31
0.0
  0
SOLID
  5
346
330
2
100
AcDbEntity
  8
0
100
AcDbTrace
 10
266.048640857603
 20
239.1956039362249
 30
0.0
 11
266.8819741909364
 21
239.1956039362249
 31
0.0
 12
266.4653075242697
 22
241.695603936225
 32
0.0
 13
266.4653075242697
 23
241.695603936225
 33
0.0
  0
LINE
  5
347
330
2
100
AcDbEntity
  8
0
100
AcDbLine
 10
274.0667411317552
 20
246.695603936225
 30
0.0
 11
265.2153075242697
 21
246.695603936225
 31
0.0
  0
LINE
  5
348
330
2
100
AcDbEntity
  8
0
100
AcDbLine
 10
266.4653075242697
 20
249.1956039362249
 30
0.0
 11
266.4653075242697
 21
251.6956039362249
 31
0.0
  0
SOLID
  5
349
330
2
100
AcDbEntity
  8
0
100
AcDbTrace
 10
266.048640857603
 20
249.1956039362249
 30
0.0
 11
266.8819741909364
 21
249.1956039362249
 31
0.0
 12
266.4653075242697
 22
246.695603936225
 32
0.0
 13
266.4653075242697
 23
246.695603936225
 33
0.0
  0
TEXT
  5
34A
330
2
100
AcDbEntity
  8
0
100
AcDbText
 10
332.3838789589842
 20
209.3001339404731
 30
0.0
 40
2.499999999999993
  1
R4,5
 50
63.3401678596162
 51
0.0000000000001551
100
AcDbText
  0
LINE
  5
34B
330
2
100
AcDbEntity
  8
0
100
AcDbLine
 10
333.1943963611039
 20
208.4602665101614
 30
0.0
 11
338.455851020028
 21
218.9398007534371
 31
0.0
  0
LINE
  5
34C
330
2
100
AcDbEntity
  8
0
100
AcDbLine
 10
302.6917411317552
 20
223.5706039362249
 30
0.0
 11
302.6917411317552
 21
200.4466053172719
 31
0.0
  0
LINE
  5
34D
330
2
100
AcDbEntity
  8
0
100
AcDbLine
 10
326.0966990803807
 20
224.5706039362249
 30
0.0
 11
326.0966990803807
 21
201.285236950655
 31
0.0
  0
TEXT
  5
34E
330
2
100
AcDbEntity
  8
0
100
AcDbText
 10
285.1084077984219
 20
202.3216053172719
 30
0.0
 40
2.5
  1
31
100
AcDbText
  0
SOLID
  5
34F
330
2
100
AcDbEntity
  8
0
100
AcDbTrace
 10
300.1917411317552
 20
202.1132719839386
 30
0.0
 11
300.1917411317552
 21
201.2799386506053
 31
0.0
 12
302.6917411317552
 22
201.6966053172719
 32
0.0
 13
302.6917411317552
 23
201.6966053172719
 33
0.0
  0
SOLID
  5
350
330
2
100
AcDbEntity
  8
0
100
AcDbTrace
 10
328.5966990803807
 20
202.9519036173217
 30
0.0
 11
328.5966990803807
 21
202.1185702839884
 31
0.0
 12
326.0966990803807
 22
202.535236950655
 32
0.0
 13
326.0966990803807
 23
202.535236950655
 33
0.0
  0
TEXT
  5
351
330
2
100
AcDbEntity
  8
0
100
AcDbText
 10
339.5133657470473
 20
203.1602369506551
 30
0.0
 40
2.5
  1
31
100
AcDbText
  0
LINE
  5
352
330
2
100
AcDbEntity
  8
0
100
AcDbLine
 10
287.8167411317551
 20
218.6956039362249
 30
0.0
 11
310.9563580648859
 21
218.6956039362249
 31
0.0
  0
LINE
  5
353
330
2
100
AcDbEntity
  8
0
100
AcDbLine
 10
287.8167411317551
 20
229.695603936225
 30
0.0
 11
310.9563580648859
 21
229.695603936225
 31
0.0
  0
LINE
  5
354
330
2
100
AcDbEntity
  8
KCF_071ffsf01
100
AcDbLine
 10
299.6917411317552
 20
221.1956039362249
 30
0.0
 11
291.8015133604016
 21
221.195603936225
 31
0.0
1001
LpCAD
1000
sf01
1000
;Auto-01;KCF_071ffsf01;0;0;
1040
69.33140621619211
1070
     0
  0
LINE
  5
355
330
2
100
AcDbEntity
  8
KCF_071ffsf01
100
AcDbLine
 10
291.8015133604016
 20
227.1956039362249
 30
0.0
 11
299.6917411317552
 21
227.1956039362249
 31
0.0
1001
LpCAD
1000
sf01
1000
;Auto-01;KCF_071ffsf01;0;0;
1040
69.33140621619211
1070
     0
  0
LINE
  5
356
330
2
100
AcDbEntity
  8
0
100
AcDbLine
 10
287.191741131755
 20
224.1956039362249
 30
0.0
 11
284.3408912572793
 21
219.4921312836839
 31
0.0
  0
ARC
  5
357
330
2
100
AcDbEntity
  8
KCF_071ffsf01
100
AcDbCircle
 10
287.1917411317551
 20
224.1956039362249
 30
0.0
 40
5.500000000000007
100
AcDbArc
 50
213.0557311508532
 51
326.9442688491468
1001
LpCAD
1000
sf01
1000
;Auto-01;KCF_071ffsf01;0;0;
1040
69.33140621619211
1070
     0
  0
SOLID
  5
358
330
2
100
AcDbEntity
  8
0
100
AcDbTrace
 10
282.6887267194463
 20
217.5701626442315
 30
0.0
 11
283.4013740910435
 21
217.1382156935534
 31
0.0
 12
284.3408912572793
 22
219.4921312836839
 32
0.0
 13
284.3408912572793
 23
219.4921312836839
 33
0.0
  0
ARC
  5
359
330
2
100
AcDbEntity
  8
KCF_071ffsf01
100
AcDbCircle
 10
287.1917411317551
 20
224.1956039362249
 30
0.0
 40
5.500000000000014
100
AcDbArc
 50
33.05573115085328
 51
146.9442688491467
1001
LpCAD
1000
sf01
1000
;Auto-01;KCF_071ffsf01;0;0;
1040
69.33140621619211
1070
     0
  0
LINE
  5
35A
330
2
100
AcDbEntity
  8
0
100
AcDbLine
 10
309.706358064886
 20
227.195603936225
 30
0.0
 11
309.706358064886
 21
221.1956039362249
 31
0.0
  0
ARC
  5
35B
330
2
100
AcDbEntity
  8
KCF_071ffsf01
100
AcDbCircle
 10
299.6917411317552
 20
224.1956039362249
 30
0.0
 40
2.999999999999978
100
AcDbArc
 50
270.0
 51
90.0
1001
LpCAD
1000
sf01
1000
;Auto-01;KCF_071ffsf01;0;0;
1040
69.33140621619211
1070
     0
  0
SOLID
  5
35C
330
2
100
AcDbEntity
  8
0
100
AcDbTrace
 10
309.2896913982193
 20
221.1956039362249
 30
0.0
 11
310.1230247315526
 21
221.1956039362249
 31
0.0
 12
309.706358064886
 22
218.6956039362249
 32
0.0
 13
309.706358064886
 23
218.6956039362249
 33
0.0
  0
TEXT
  5
35D
330
2
100
AcDbEntity
  8
0
100
AcDbText
 10
309.0813580648859
 20
222.290842031463
 30
0.0
 40
2.5
  1
11
 50
90.0
100
AcDbText
  0
SOLID
  5
35E
330
2
100
AcDbEntity
  8
0
100
AcDbTrace
 10
309.2896913982193
 20
227.195603936225
 30
0.0
 11
310.1230247315526
 21
227.195603936225
 31
0.0
 12
309.706358064886
 22
229.695603936225
 32
0.0
 13
309.706358064886
 23
229.695603936225
 33
0.0
  0
LINE
  5
35F
330
2
100
AcDbEntity
  8
0
100
AcDbLine
 10
287.8167411317552
 20
239.1956039362249
 30
0.0
 11
310.956358064886
 21
239.1956039362249
 31
0.0
  0
LINE
  5
360
330
2
100
AcDbEntity
  8
0
100
AcDbLine
 10
287.8167411317552
 20
249.195603936225
 30
0.0
 11
310.956358064886
 21
249.195603936225
 31
0.0
  0
LINE
  5
361
330
2
100
AcDbEntity
  8
KCF_071ffsf01
100
AcDbLine
 10
299.6917411317552
 20
246.695603936225
 30
0.0
 11
291.5218681506774
 21
246.695603936225
 31
0.0
1001
LpCAD
1000
sf01
1000
;Auto-01;KCF_071ffsf01;0;0;
1040
69.33140621619211
1070
     0
  0
LINE
  5
362
330
2
100
AcDbEntity
  8
KCF_071ffsf01
100
AcDbLine
 10
291.5218681506774
 20
241.695603936225
 30
0.0
 11
299.6917411317552
 21
241.695603936225
 31
0.0
1001
LpCAD
1000
sf01
1000
;Auto-01;KCF_071ffsf01;0;0;
1040
69.33140621619211
1070
     0
  0
LINE
  5
363
330
2
100
AcDbEntity
  8
0
100
AcDbLine
 10
287.191741131755
 20
244.1956039362249
 30
0.0
 11
283.3189876413728
 21
247.3581630902536
 31
0.0
  0
ARC
  5
364
330
2
100
AcDbEntity
  8
KCF_071ffsf01
100
AcDbCircle
 10
287.1917411317552
 20
244.195603936225
 30
0.0
 40
5.000000000000011
100
AcDbArc
 50
210.0
 51
330.0
1001
LpCAD
1000
sf01
1000
;Auto-01;KCF_071ffsf01;0;0;
1040
69.33140621619211
1070
     0
  0
ARC
  5
365
330
2
100
AcDbEntity
  8
KCF_071ffsf01
100
AcDbCircle
 10
287.1917411317552
 20
244.195603936225
 30
0.0
 40
5.000000000000006
100
AcDbArc
 50
29.99999999999992
 51
150.0
1001
LpCAD
1000
sf01
1000
;Auto-01;KCF_071ffsf01;0;0;
1040
69.33140621619211
1070
     0
  0
SOLID
  5
366
330
2
100
AcDbEntity
  8
0
100
AcDbTrace
 10
281.6461574923506
 20
249.2621721247999
 30
0.0
 11
281.1190643000125
 21
248.6167132097362
 31
0.0
 12
283.3189876413728
 22
247.3581630902536
 32
0.0
 13
283.3189876413728
 23
247.3581630902536
 33
0.0
  0
TEXT
  5
367
330
2
100
AcDbEntity
  8
0
100
AcDbText
 10
309.081358064886
 20
241.993222983844
 30
0.0
 40
2.5
  1
10
 50
90.0
100
AcDbText
  0
LINE
  5
368
330
2
100
AcDbEntity
  8
0
100
AcDbLine
 10
309.706358064886
 20
246.695603936225
 30
0.0
 11
309.706358064886
 21
241.6956039362249
 31
0.0
  0
ARC
  5
369
330
2
100
AcDbEntity
  8
KCF_071ffsf01
100
AcDbCircle
 10
299.6917411317552
 20
244.195603936225
 30
0.0
 40
2.499999999999978
100
AcDbArc
 50
270.0
 51
90.0
1001
LpCAD
1000
sf01
1000
;Auto-01;KCF_071ffsf01;0;0;
1040
69.33140621619211
1070
     0
  0
SOLID
  5
36A
330
2
100
AcDbEntity
  8
0
100
AcDbTrace
 10
309.2896913982193
 20
241.6956039362249
 30
0.0
 11
310.1230247315527
 21
241.6956039362249
 31
0.0
 12
309.706358064886
 22
239.1956039362249
 32
0.0
 13
309.706358064886
 23
239.1956039362249
 33
0.0
  0
SOLID
  5
36B
330
2
100
AcDbEntity
  8
0
100
AcDbTrace
 10
309.2896913982193
 20
246.695603936225
 30
0.0
 11
310.1230247315527
 21
246.695603936225
 31
0.0
 12
309.706358064886
 22
249.195603936225
 32
0.0
 13
309.706358064886
 23
249.195603936225
 33
0.0
  0
LINE
  5
36C
330
2
100
AcDbEntity
  8
0
100
AcDbLine
 10
317.4137839944181
 20
230.4456039362249
 30
0.0
 11
317.4137839944181
 21
232.9456039362249
 31
0.0
  0
LINE
  5
36D
330
2
100
AcDbEntity
  8
0
100
AcDbLine
 10
328.2216990803807
 20
222.4456039362249
 30
0.0
 11
316.1637839944181
 21
222.4456039362249
 31
0.0
  0
LINE
  5
36E
330
2
100
AcDbEntity
  8
0
100
AcDbLine
 10
328.2216990803807
 20
227.9456039362249
 30
0.0
 11
316.1637839944181
 21
227.9456039362249
 31
0.0
  0
ARC
  5
36F
330
2
100
AcDbEntity
  8
KCF_071ffsf01
100
AcDbCircle
 10
328.8466990803807
 20
225.1956039362249
 30
0.0
 40
2.75
100
AcDbArc
 50
90.0
 51
270.0
1001
LpCAD
1000
sf01
1000
;Auto-01;KCF_071ffsf01;0;0;
1040
67.48264894822381
1070
     0
  0
SOLID
  5
370
330
2
100
AcDbEntity
  8
0
100
AcDbTrace
 10
316.9971173277514
 20
219.9456039362249
 30
0.0
 11
317.8304506610848
 21
219.9456039362249
 31
0.0
 12
317.4137839944181
 22
222.4456039362249
 32
0.0
 13
317.4137839944181
 23
222.4456039362249
 33
0.0
  0
TEXT
  5
371
330
2
100
AcDbEntity
  8
0
100
AcDbText
 10
316.3125935182276
 20
211.2253658409869
 30
0.0
 40
2.5
  1
5,5
 50
90.0
100
AcDbText
  0
LINE
  5
372
330
2
100
AcDbEntity
  8
0
100
AcDbLine
 10
317.4137839944181
 20
219.9456039362249
 30
0.0
 11
317.4137839944181
 21
210.9575086981297
 31
0.0
  0
LINE
  5
373
330
2
100
AcDbEntity
  8
0
100
AcDbLine
 10
317.4137839944181
 20
227.9456039362249
 30
0.0
 11
317.4137839944181
 21
222.4456039362249
 31
0.0
  0
SOLID
  5
374
330
2
100
AcDbEntity
  8
0
100
AcDbTrace
 10
316.9971173277514
 20
230.4456039362249
 30
0.0
 11
317.8304506610848
 21
230.4456039362249
 31
0.0
 12
317.4137839944181
 22
227.9456039362249
 32
0.0
 13
317.4137839944181
 23
227.9456039362249
 33
0.0
  0
LINE
  5
375
330
2
100
AcDbEntity
  8
0
100
AcDbLine
 10
341.5966990803806
 20
225.1956039362249
 30
0.0
 11
339.5775824701539
 21
221.1740161758613
 31
0.0
  0
SOLID
  5
376
330
2
100
AcDbEntity
  8
0
100
AcDbTrace
 10
338.0834817829573
 20
219.1267559951248
 30
0.0
 11
338.8282202570987
 21
218.7528455117494
 31
0.0
 12
339.5775824701539
 22
221.1740161758613
 32
0.0
 13
339.5775824701539
 23
221.1740161758613
 33
0.0
  0
LINE
  5
377
330
2
100
AcDbEntity
  8
KCF_071ffsf01
100
AcDbLine
 10
328.8466990803807
 20
227.9456039362249
 30
0.0
 11
338.0347473681869
 21
227.9456039362249
 31
0.0
1001
LpCAD
1000
sf01
1000
;Auto-01;KCF_071ffsf01;0;0;
1040
67.48264894822381
1070
     0
  0
LINE
  5
378
330
2
100
AcDbEntity
  8
KCF_071ffsf01
100
AcDbLine
 10
338.034747368187
 20
222.4456039362249
 30
0.0
 11
328.8466990803807
 21
222.4456039362249
 31
0.0
1001
LpCAD
1000
sf01
1000
;Auto-01;KCF_071ffsf01;0;0;
1040
67.48264894822381
1070
     0
  0
LINE
  5
379
330
2
100
AcDbEntity
  8
0
100
AcDbLine
 10
340.9716990803807
 20
239.195603936225
 30
0.0
 11
316.1637839944181
 21
239.195603936225
 31
0.0
  0
LINE
  5
37A
330
2
100
AcDbEntity
  8
0
100
AcDbLine
 10
340.9716990803807
 20
247.195603936225
 30
0.0
 11
316.1637839944181
 21
247.195603936225
 31
0.0
  0
SOLID
  5
37B
330
2
100
AcDbEntity
  8
0
100
AcDbTrace
 10
329.0966990803807
 20
256.0319638220335
 30
0.0
 11
329.0966990803807
 21
255.1986304887002
 31
0.0
 12
326.5966990803807
 22
255.6152971553668
 32
0.0
 13
326.5966990803807
 23
255.6152971553668
 33
0.0
  0
ARC
  5
37C
330
2
100
AcDbEntity
  8
KCF_071ffsf01
100
AcDbCircle
 10
328.8466990803807
 20
243.195603936225
 30
0.0
 40
2.250000000000003
100
AcDbArc
 50
90.0
 51
270.0
1001
LpCAD
1000
sf01
1000
;Auto-01;KCF_071ffsf01;0;0;
1040
67.48264894822381
1070
     0
  0
LINE
  5
37D
330
2
100
AcDbEntity
  8
0
100
AcDbLine
 10
317.4137839944181
 20
244.695603936225
 30
0.0
 11
317.4137839944181
 21
241.695603936225
 31
0.0
  0
TEXT
  5
37E
330
2
100
AcDbEntity
  8
0
100
AcDbText
 10
316.7887839944181
 20
242.0051277457488
 30
0.0
 40
2.5
  1
8
 50
90.0
100
AcDbText
  0
SOLID
  5
37F
330
2
100
AcDbEntity
  8
0
100
AcDbTrace
 10
316.9971173277514
 20
241.695603936225
 30
0.0
 11
317.8304506610848
 21
241.695603936225
 31
0.0
 12
317.4137839944181
 22
239.195603936225
 32
0.0
 13
317.4137839944181
 23
239.195603936225
 33
0.0
  0
SOLID
  5
380
330
2
100
AcDbEntity
  8
0
100
AcDbTrace
 10
316.9971173277514
 20
244.695603936225
 30
0.0
 11
317.8304506610848
 21
244.695603936225
 31
0.0
 12
317.4137839944181
 22
247.195603936225
 32
0.0
 13
317.4137839944181
 23
247.195603936225
 33
0.0
  0
LINE
  5
381
330
2
100
AcDbEntity
  8
KCF_071ffsf01
100
AcDbLine
 10
328.8466990803807
 20
240.945603936225
 30
0.0
 11
338.2895099415498
 21
240.945603936225
 31
0.0
1001
LpCAD
1000
sf01
1000
;Auto-01;KCF_071ffsf01;0;0;
1040
67.48264894822381
1070
     0
  0
LINE
  5
382
330
2
100
AcDbEntity
  8
KCF_071ffsf01
100
AcDbLine
 10
338.28950994155
 20
245.445603936225
 30
0.0
 11
328.8466990803807
 21
245.445603936225
 31
0.0
1001
LpCAD
1000
sf01
1000
;Auto-01;KCF_071ffsf01;0;0;
1040
67.48264894822381
1070
     0
  0
LINE
  5
383
330
2
100
AcDbEntity
  8
0
100
AcDbLine
 10
274.6917411317552
 20
258.4623536393935
 30
0.0
 11
299.6917411317552
 21
258.4623536393935
 31
0.0
  0
SOLID
  5
384
330
2
100
AcDbEntity
  8
0
100
AcDbTrace
 10
243.8305316499981
 20
262.3670696621076
 30
0.0
 11
243.8305316499981
 21
261.5337363287744
 31
0.0
 12
246.3305316499982
 22
261.950402995441
 32
0.0
 13
246.3305316499982
 23
261.950402995441
 33
0.0
  0
TEXT
  5
385
330
2
100
AcDbEntity
  8
0
100
AcDbText
 10
227.9495792690458
 20
262.575402995441
 30
0.0
 40
2.5
  1
32
100
AcDbText
  0
LINE
  5
386
330
2
100
AcDbEntity
  8
0
100
AcDbLine
 10
216.8305316499981
 20
261.950402995441
 30
0.0
 11
243.8305316499981
 21
261.950402995441
 31
0.0
  0
SOLID
  5
387
330
2
100
AcDbEntity
  8
0
100
AcDbTrace
 10
216.8305316499981
 20
262.3670696621076
 30
0.0
 11
216.8305316499981
 21
261.5337363287744
 31
0.0
 12
214.3305316499982
 22
261.950402995441
 32
0.0
 13
214.3305316499982
 23
261.950402995441
 33
0.0
  0
SOLID
  5
388
330
2
100
AcDbEntity
  8
0
100
AcDbTrace
 10
274.6917411317552
 20
258.8790203060602
 30
0.0
 11
274.6917411317552
 21
258.0456869727268
 31
0.0
 12
272.1917411317552
 22
258.4623536393935
 32
0.0
 13
272.1917411317552
 23
258.4623536393935
 33
0.0
  0
TEXT
  5
389
330
2
100
AcDbEntity
  8
0
100
AcDbText
 10
284.8107887508028
 20
259.0873536393935
 30
0.0
 40
2.5
  1
30
100
AcDbText
  0
SOLID
  5
38A
330
2
100
AcDbEntity
  8
0
100
AcDbTrace
 10
299.6917411317552
 20
258.8790203060602
 30
0.0
 11
299.6917411317552
 21
258.0456869727268
 31
0.0
 12
302.1917411317552
 22
258.4623536393935
 32
0.0
 13
302.1917411317552
 23
258.4623536393935
 33
0.0
  0
TEXT
  5
38B
330
2
100
AcDbEntity
  8
0
100
AcDbText
 10
339.2157466994283
 20
256.2402971553668
 30
0.0
 40
2.5
  1
30
100
AcDbText
  0
TEXT
  5
38C
330
2
100
AcDbEntity
  8
0
100
AcDbText
 10
363.4161017695125
 20
252.3682229838441
 30
0.0
 40
2.5
  1
4,5
 50
90.0
100
AcDbText
  0
LINE
  5
38D
330
2
100
AcDbEntity
  8
0
100
AcDbLine
 10
364.517292245703
 20
247.945603936225
 30
0.0
 11
364.517292245703
 21
258.5884610790821
 31
0.0
  0
LINE
  5
38E
330
2
100
AcDbEntity
  8
0
100
AcDbLine
 10
356.5966990803806
 20
243.820603936225
 30
0.0
 11
356.5966990803806
 21
256.8652971553668
 31
0.0
  0
LINE
  5
38F
330
2
100
AcDbEntity
  8
0
100
AcDbLine
 10
357.0966990803806
 20
224.5706039362248
 30
0.0
 11
357.0966990803806
 21
201.285236950655
 31
0.0
  0
SOLID
  5
390
330
2
100
AcDbEntity
  8
0
100
AcDbTrace
 10
354.5966990803806
 20
202.9519036173217
 30
0.0
 11
354.5966990803806
 21
202.1185702839884
 31
0.0
 12
357.0966990803806
 22
202.535236950655
 32
0.0
 13
357.0966990803806
 23
202.535236950655
 33
0.0
  0
LINE
  5
391
330
2
100
AcDbEntity
  8
KCF_071ffsf01
100
AcDbLine
 10
354.3466990803806
 20
222.4456039362249
 30
0.0
 11
345.1586507925744
 21
222.4456039362249
 31
0.0
1001
LpCAD
1000
sf01
1000
;Auto-01;KCF_071ffsf01;0;0;
1040
67.48264894822381
1070
     0
  0
LINE
  5
392
330
2
100
AcDbEntity
  8
KCF_071ffsf01
100
AcDbLine
 10
345.1586507925744
 20
227.9456039362249
 30
0.0
 11
354.3466990803807
 21
227.9456039362248
 31
0.0
1001
LpCAD
1000
sf01
1000
;Auto-01;KCF_071ffsf01;0;0;
1040
67.48264894822381
1070
     0
  0
ARC
  5
393
330
2
100
AcDbEntity
  8
KCF_071ffsf01
100
AcDbCircle
 10
354.3466990803807
 20
225.1956039362249
 30
0.0
 40
2.749999999999971
100
AcDbArc
 50
269.9999999999988
 51
89.9999999999988
1001
LpCAD
1000
sf01
1000
;Auto-01;KCF_071ffsf01;0;0;
1040
67.48264894822381
1070
     0
  0
SOLID
  5
394
330
2
100
AcDbEntity
  8
0
100
AcDbTrace
 10
364.1006255790363
 20
223.1956039362249
 30
0.0
 11
364.9339589123697
 21
223.1956039362249
 31
0.0
 12
364.517292245703
 22
220.6956039362249
 32
0.0
 13
364.517292245703
 23
220.6956039362249
 33
0.0
  0
LINE
  5
395
330
2
100
AcDbEntity
  8
0
100
AcDbLine
 10
364.517292245703
 20
227.195603936225
 30
0.0
 11
364.517292245703
 21
223.1956039362249
 31
0.0
  0
TEXT
  5
396
330
2
100
AcDbEntity
  8
0
100
AcDbText
 10
363.892292245703
 20
224.0051277457488
 30
0.0
 40
2.5
  1
9
 50
90.0
100
AcDbText
  0
SOLID
  5
397
330
2
100
AcDbEntity
  8
0
100
AcDbTrace
 10
364.1006255790363
 20
227.195603936225
 30
0.0
 11
364.9339589123697
 21
227.195603936225
 31
0.0
 12
364.517292245703
 22
229.695603936225
 32
0.0
 13
364.517292245703
 23
229.695603936225
 33
0.0
  0
LINE
  5
398
330
2
100
AcDbEntity
  8
0
100
AcDbLine
 10
354.9716990803808
 20
240.9456039362251
 30
0.0
 11
365.767292245703
 21
240.9456039362251
 31
0.0
  0
LINE
  5
399
330
2
100
AcDbEntity
  8
0
100
AcDbLine
 10
354.9716990803807
 20
245.445603936225
 30
0.0
 11
365.767292245703
 21
245.445603936225
 31
0.0
  0
ARC
  5
39A
330
2
100
AcDbEntity
  8
KCF_071ffsf01
100
AcDbCircle
 10
354.3466990803807
 20
243.195603936225
 30
0.0
 40
2.249999999999971
100
AcDbArc
 50
270.0
 51
90.0
1001
LpCAD
1000
sf01
1000
;Auto-01;KCF_071ffsf01;0;0;
1040
67.48264894822381
1070
     0
  0
LINE
  5
39B
330
2
100
AcDbEntity
  8
KCF_071ffsf01
100
AcDbLine
 10
344.9038882192114
 20
240.945603936225
 30
0.0
 11
354.3466990803807
 21
240.9456039362251
 31
0.0
1001
LpCAD
1000
sf01
1000
;Auto-01;KCF_071ffsf01;0;0;
1040
67.48264894822381
1070
     0
  0
LINE
  5
39C
330
2
100
AcDbEntity
  8
0
100
AcDbLine
 10
353.4879918241804
 20
251.9627360058965
 30
0.0
 11
346.8284846066616
 21
247.0528594640579
 31
0.0
  0
LINE
  5
39D
330
2
100
AcDbEntity
  8
KCF_071ffsf01
100
AcDbLine
 10
354.3466990803807
 20
245.445603936225
 30
0.0
 11
344.9038882192114
 21
245.445603936225
 31
0.0
1001
LpCAD
1000
sf01
1000
;Auto-01;KCF_071ffsf01;0;0;
1040
67.48264894822381
1070
     0
  0
TEXT
  5
39E
330
2
100
AcDbEntity
  8
0
100
AcDbText
 10
348.7812356596138
 20
249.2690741263825
 30
0.0
 40
2.500000000000015
  1
R4
 50
36.40035882332176
 51
0.0000000000003885
100
AcDbText
  0
SOLID
  5
39F
330
2
100
AcDbEntity
  8
0
100
AcDbTrace
 10
346.5812246369288
 20
247.3882303311272
 30
0.0
 11
347.0757445763945
 21
246.7174885969886
 31
0.0
 12
344.8162594042459
 22
245.5692996456606
 32
0.0
 13
344.8162594042459
 23
245.5692996456606
 33
0.0
  0
SOLID
  5
3A0
330
2
100
AcDbEntity
  8
0
100
AcDbTrace
 10
354.0966990803806
 20
256.0319638220335
 30
0.0
 11
354.0966990803806
 21
255.1986304887002
 31
0.0
 12
356.5966990803806
 22
255.6152971553668
 32
0.0
 13
356.5966990803806
 23
255.6152971553668
 33
0.0
  0
LINE
  5
3A1
330
2
100
AcDbEntity
  8
0
100
AcDbLine
 10
364.517292245703
 20
240.9456039362251
 30
0.0
 11
364.517292245703
 21
245.445603936225
 31
0.0
  0
SOLID
  5
3A2
330
2
100
AcDbEntity
  8
0
100
AcDbTrace
 10
364.1006255790363
 20
238.4456039362251
 30
0.0
 11
364.9339589123697
 21
238.4456039362251
 31
0.0
 12
364.517292245703
 22
240.9456039362251
 32
0.0
 13
364.517292245703
 23
240.9456039362251
 33
0.0
  0
LINE
  5
3A3
330
2
100
AcDbEntity
  8
0
100
AcDbLine
 10
364.517292245703
 20
238.4456039362251
 30
0.0
 11
364.517292245703
 21
235.9456039362251
 31
0.0
  0
SOLID
  5
3A4
330
2
100
AcDbEntity
  8
0
100
AcDbTrace
 10
364.1006255790363
 20
247.945603936225
 30
0.0
 11
364.9339589123697
 21
247.945603936225
 31
0.0
 12
364.517292245703
 22
245.445603936225
 32
0.0
 13
364.517292245703
 23
245.445603936225
 33
0.0
  0
ENDSEC
  0
SECTION
  2
OBJECTS
  0
DICTIONARY
  5
7
330
0
100
AcDbDictionary
281
     1
  3
ACAD_COLOR
350
3F1
  3
ACAD_GROUP
350
92
  3
ACAD_LAYOUT
350
B
  3
ACAD_MATERIAL
350
3F0
  3
ACAD_MLINESTYLE
350
93
  3
ACAD_PLOTSETTINGS
350
94
  3
ACAD_PLOTSTYLENAME
350
6
  3
ACAD_TABLESTYLE
350
3F2
  3
ACDBHEADERROUNDTRIPXREC
350
3FE
  3
AcDbVariableDictionary
350
3A5
  3
ASE_INDEX_DICTIONARY
350
3F8
  3
EugeneTools
350
3AC
  3
LpToolsDictionary
350
3E9
  0
DICTIONARY
  5
11
330
10
100
AcDbDictionary
280
     1
281
     1
  3
ACAD_LAYERFILTERS
360
12
  3
ACAD_LAYERSTATES
360
83
  0
DICTIONARY
  5
3F1
102
{ACAD_REACTORS
330
7
102
}
330
7
100
AcDbDictionary
281
     1
  0
DICTIONARY
  5
92
102
{ACAD_REACTORS
330
7
102
}
330
7
100
AcDbDictionary
281
     1
  0
DICTIONARY
  5
B
102
{ACAD_REACTORS
330
7
102
}
330
7
100
AcDbDictionary
281
     1
  3
Model
350
A
  3
Согласование
350
F
  0
DICTIONARY
  5
3F0
102
{ACAD_REACTORS
330
7
102
}
330
7
100
AcDbDictionary
281
     1
  0
DICTIONARY
  5
93
102
{ACAD_REACTORS
330
7
102
}
330
7
100
AcDbDictionary
281
     1
  3
Standard
350
96
  0
DICTIONARY
  5
94
102
{ACAD_REACTORS
330
7
102
}
330
7
100
AcDbDictionary
281
     1
  0
ACDBDICTIONARYWDFLT
  5
6
102
{ACAD_REACTORS
330
7
102
}
330
7
100
AcDbDictionary
281
     1
  3
Normal
350
5
100
AcDbDictionaryWithDefault
340
5
  0
DICTIONARY
  5
3F2
102
{ACAD_REACTORS
330
7
102
}
330
7
100
AcDbDictionary
281
     1
  3
Standard
350
3F3
  0
DICTIONARY
  5
3FE
102
{ACAD_REACTORS
330
7
102
}
330
7
100
AcDbDictionary
281
     1
  0
DICTIONARY
  5
3A5
102
{ACAD_REACTORS
330
7
102
}
330
7
100
AcDbDictionary
281
     1
  3
CTABLESTYLE
350
3FB
  3
DIMASSOC
350
3A7
  3
HIDETEXT
350
3A6
  3
PROJECTNAME
350
3FC
  0
DICTIONARY
  5
3F8
102
{ACAD_REACTORS
330
7
102
}
330
7
100
AcDbDictionary
281
     1
  3
ASEBlockHierarchyIndexRecord
350
3FA
1001
DCO15
1040
1683549948.964
  0
DICTIONARY
  5
3AC
102
{ACAD_REACTORS
330
7
102
}
330
7
100
AcDbDictionary
281
     1
  3
DocProperties
350
3AD
  3
Memories
350
3AE
  0
DICTIONARY
  5
3E9
102
{ACAD_REACTORS
330
7
102
}
330
7
100
AcDbDictionary
281
     1
  3
BDEsf01
350
3EB
  3
BPRsf01
350
3EA
  0
DICTIONARY
  5
12
102
{ACAD_REACTORS
330
11
102
}
330
11
100
AcDbDictionary
280
     1
281
     1
  3
-1
360
13
  3
-2
360
14
  3
-3
360
15
  3
-3.45
360
16
  3
-4
360
17
  3
-5
360
18
  3
-6
360
19
  3
0 Общие
360
1A
  3
0-
360
1B
  3
00
360
1C
  3
00 Этаж
360
1D
  3
0_3D_Oll
360
1E
  3
0H
360
1F
  3
1
360
20
  3
1 Этаж
360
21
  3
1_3D_Oll
360
22
  3
2
360
23
  3
2 Этаж
360
24
  3
210
360
25
  3
2_3D_Oll
360
26
  3
3
360
27
  3
3 Этаж
360
28
  3
3_3D_Oll
360
29
  3
3D_All
360
2A
  3
4
360
2B
  3
4.2
360
2C
  3
5
360
2D
  3
6
360
2E
  3
7
360
2F
  3
7.5
360
30
  3
8
360
31
  3
9
360
32
  3
a
360
33
  3
All Xref Independent Layers
360
34
  3
ANA1
360
35
  3
Area_Oll
360
36
  3
av
360
37
  3
av-
360
38
  3
av-shn
360
39
  3
BOLLINI
360
3A
  3
dim
360
3B
  3
DOUN
360
3C
  3
expl
360
3D
  3
G1
360
3E
  3
G2
360
3F
  3
G3
360
40
  3
GEO
360
41
  3
gvs
360
42
  3
H
360
43
  3
hag
360
44
  3
INVISIBLE
360
45
  3
IRON
360
46
  3
IRON-Layers
360
47
  3
K2
360
48
  3
KI
360
49
  3
kk
360
4A
  3
kol
360
4B
  3
KOORD
360
4C
  3
kr
360
4D
  3
KSTFOPL1
360
4E
  3
mk-
360
4F
  3
off
360
50
  3
on
360
51
  3
ONLY ONN
360
52
  3
PB
360
53
  3
PB-LAYERS
360
54
  3
pl-cok-et
360
55
  3
PRIMO
360
56
  3
qq
360
57
  3
quote
360
58
  3
r-mk
360
59
  3
Roof
360
5A
  3
Roof_2_3+3D
360
5B
  3
Roof_3D
360
5C
  3
Roof_Oll
360
5D
  3
s
360
5E
  3
SERV
360
5F
  3
Sow frozen layers
360
60
  3
Sow on layers
360
61
  3
ST
360
62
  3
tabl
360
63
  3
Test1
360
64
  3
text
360
65
  3
TOP
360
66
  3
wall
360
67
  3
wl
360
68
  3
wl-
360
69
  3
X-ref
360
6A
  3
Xref
360
6B
  3
xref-1
360
6C
  3
Ботаника
360
6D
  3
Бут
360
6E
  3
Василий
360
6F
  3
ВК
360
70
  3
ВК_ОВ
360
71
  3
Галина
360
72
  3
Капитальн и Малые
360
73
  3
Лестницы Все
360
74
  3
Лестницы_3D
360
75
  3
Мебель
360
76
  3
Монолит
360
77
  3
Монолит_3D
360
78
  3
ОВ
360
79
  3
Окно_3D
360
7A
  3
Сети разные
360
7B
  3
Столяр_Все
360
7C
  3
Топос_Матвиенко
360
7D
  3
Топосъемка Ксюши
360
7E
  3
Топосъемка Сингеос
360
7F
  3
Топосъемка ФундПроект
360
80
  3
ф
360
81
  3
электрика
360
82
  0
DICTIONARY
  5
83
102
{ACAD_REACTORS
330
11
102
}
330
11
100
AcDbDictionary
281
     1
  0
LAYOUT
  5
A
102
{ACAD_XDICTIONARY
360
3FF
102
}
102
{ACAD_REACTORS
330
B
102
}
330
B
100
AcDbPlotSettings
  1

  2
\\dc-1\HP Business Inkjet 2300 PCL 5c
  4

  6

 40
0.0
 41
0.0
 42
0.0
 43
0.0
 44
0.0
 45
0.0
 46
0.0
 47
0.0
 48
0.0
 49
0.0
140
0.0
141
0.0
142
1.0
143
1.0
 70
  1712
 72
     0
 73
     0
 74
     0
  7

 75
     0
147
1.0
148
0.0
149
0.0
100
AcDbLayout
  1
Model
 70
     1
 71
     0
 10
0.0
 20
0.0
 11
12.0
 21
9.0
 12
0.0
 22
0.0
 32
0.0
 14
0.0
 24
0.0
 34
0.0
 15
0.0
 25
0.0
 35
0.0
146
0.0
 13
0.0
 23
0.0
 33
0.0
 16
1.0
 26
0.0
 36
0.0
 17
0.0
 27
1.0
 37
0.0
 76
     0
330
2
  0
LAYOUT
  5
F
102
{ACAD_XDICTIONARY
360
401
102
}
102
{ACAD_REACTORS
330
B
102
}
330
B
100
AcDbPlotSettings
  1

  2
\\DC-1\HP Business Inkjet 2300 PS
  4
A4
  6

 40
5.027083396911621
 41
5.027085304260253
 42
5.027069091796875
 43
5.027069091796875
 44
209.8886566162109
 45
297.0106506347656
 46
0.0
 47
0.0
 48
0.0
 49
0.0
140
270.0
141
200.0
142
1.0
143
1.0
 70
   688
 72
     1
 73
     1
 74
     5
  7

 75
    16
147
1.0
148
0.0
149
0.0
100
AcDbLayout
  1
Согласование
 70
     1
 71
     1
 10
-5.027069091796875
 20
-5.027083396911621
 11
291.9835815429688
 21
204.8615732192993
 12
0.0
 22
0.0
 32
0.0
 14
0.0
 24
0.0
 34
0.0
 15
200.0
 25
280.0
 35
0.0
146
0.0
 13
0.0
 23
0.0
 33
0.0
 16
1.0
 26
0.0
 36
0.0
 17
0.0
 27
1.0
 37
0.0
 76
     0
330
C
  0
MLINESTYLE
  5
96
102
{ACAD_REACTORS
330
93
102
}
330
93
100
AcDbMlineStyle
  2
STANDARD
 70
     0
  3

 62
   256
 51
90.0
 52
90.0
 71
     2
 49
0.5
 62
   256
  6
BYLAYER
 49
-0.5
 62
   256
  6
BYLAYER
  0
ACDBPLACEHOLDER
  5
5
102
{ACAD_REACTORS
330
6
102
}
330
6
  0
TABLESTYLE
  5
3F3
102
{ACAD_REACTORS
330
3F2
102
}
330
3F2
100
AcDbTableStyle
  3
Standard
 70
     0
 71
     0
 40
1.5
 41
1.5
280
     0
281
     0
  7
Standard
140
4.5
170
     2
 62
     0
 63
     7
283
     0
274
    -2
284
     1
 64
     0
275
    -2
285
     1
 65
     0
276
    -2
286
     1
 66
     0
277
    -2
287
     1
 67
     0
278
    -2
288
     1
 68
     0
279
    -2
289
     1
 69
     0
  7
Standard
140
6.0
170
     5
 62
     0
 63
     7
283
     0
274
    -2
284
     1
 64
     0
275
    -2
285
     1
 65
     0
276
    -2
286
     1
 66
     0
277
    -2
287
     1
 67
     0
278
    -2
288
     1
 68
     0
279
    -2
289
     1
 69
     0
  7
Standard
140
4.5
170
     5
 62
     0
 63
     7
283
     0
274
    -2
284
     1
 64
     0
275
    -2
285
     1
 65
     0
276
    -2
286
     1
 66
     0
277
    -2
287
     1
 67
     0
278
    -2
288
     1
 68
     0
279
    -2
289
     1
 69
     0
  0
DICTIONARYVAR
  5
3FB
102
{ACAD_REACTORS
330
3A5
102
}
330
3A5
100
DictionaryVariables
280
     0
  1
STANDARD
  0
DICTIONARYVAR
  5
3A7
102
{ACAD_REACTORS
330
3A5
102
}
330
3A5
100
DictionaryVariables
280
     0
  1
2
  0
DICTIONARYVAR
  5
3A6
102
{ACAD_REACTORS
330
3A5
102
}
330
3A5
100
DictionaryVariables
280
     0
  1
1
  0
DICTIONARYVAR
  5
3FC
102
{ACAD_REACTORS
330
3A5
102
}
330
3A5
100
DictionaryVariables
280
     0
  1

  0
XRECORD
  5
3FA
102
{ACAD_REACTORS
330
3F8
102
}
330
3F8
100
AcDbXrecord
280
     1
  0
XRECORD
  5
3AD
102
{ACAD_REACTORS
330
3AC
102
}
330
3AC
100
AcDbXrecord
280
     1
  1
LpDai
  0
XRECORD
  5
3AE
102
{ACAD_REACTORS
330
3AC
102
}
330
3AC
100
AcDbXrecord
280
     1
  0
XRECORD
  5
3EB
102
{ACAD_REACTORS
330
3E9
102
}
330
3E9
100
AcDbXrecord
280
     1
  1
RefillCount=1
  1
BookingNumber=10-G1201
  1
ReportFillDate=1-4-2010
  1
Сustomer=ЛАЗЕРПАК
  1
Designer=
  1
FileName=10-G1201_Согласование.dwg
  1
Gabarit=0x0
  1
Thickness=
  1
Material=
  1
NickOn=False
  1
Ej_RubberOn=False
  1
Ej_ProfileOn=False
  1
Ej_PPUOn=False
  1
Ej_RubberType=
  1
Ej_RubberTight=
  1
Ej_RubberHeight=
  1
Ej_RubberDescr=
  1
Ej_ProfileType=
  1
Ej_PPUTight=
  1
Ej_PPUHeight=
  1
NickWidth=0
  1
NickDepth=0
  1
TrackLength=0
  1
TrackTime=0
  1
Ej_RubberOn2=False
  1
Ej_RubberType2=
  1
Ej_RubberTight2=
  1
Ej_RubberHeight2=
  1
Ej_RubberDescr2=
  1
ContrPlateOn=False
  1
ContrPlateMaterial=
  1
ContrPlateCount=
  1
ContrPlateLength=
  1
MakereadySheetOn=False
  1
MakereadySheet=
  1
SheetHolderOn=False
  1
SheetHolderCount=
  1
FastenerOn=False
  1
FastenerSort=
  1
FastenerCount=
  1
FastenerOn2=False
  1
FastenerSort2=
  1
FastenerCount2=
  1
FastenerOn3=False
  1
FastenerSort3=
  1
FastenerCount3=
  0
XRECORD
  5
3EA
102
{ACAD_REACTORS
330
3E9
102
}
330
3E9
100
AcDbXrecord
280
     1
  1
RefillCount=1
  1
BookingNumber=10-G1201
  1
ReportFillDate=1-4-2010
  1
Сustomer=ЛАЗЕРПАК
  1
Designer=
  1
FileName=10-G1201_Согласование.dwg
  1
Gabarit=0x0
  1
Thickness=
  1
Material=
  1
NickOn=False
  1
Ej_RubberOn=False
  1
Ej_ProfileOn=False
  1
Ej_PPUOn=False
  1
Ej_RubberType=
  1
Ej_RubberTight=
  1
Ej_RubberHeight=
  1
Ej_RubberDescr=
  1
Ej_ProfileType=
  1
Ej_PPUTight=
  1
Ej_PPUHeight=
  1
NickWidth=0
  1
NickDepth=0
  1
TrackLength=0
  1
TrackTime=0
  1
Ej_RubberOn2=False
  1
Ej_RubberType2=
  1
Ej_RubberTight2=
  1
Ej_RubberHeight2=
  1
Ej_RubberDescr2=
  1
ContrPlateOn=False
  1
ContrPlateMaterial=
  1
ContrPlateCount=
  1
ContrPlateLength=
  1
MakereadySheetOn=False
  1
MakereadySheet=
  1
SheetHolderOn=False
  1
SheetHolderCount=
  1
FastenerOn=False
  1
FastenerSort=
  1
FastenerCount=
  1
FastenerOn2=False
  1
FastenerSort2=
  1
FastenerCount2=
  1
FastenerOn3=False
  1
FastenerSort3=
  1
FastenerCount3=
  0
XRECORD
  5
13
102
{ACAD_REACTORS
330
12
102
}
330
12
100
AcDbXrecord
280
     1
  1
-1
  1
-1*
  1
*
  1
*
 70
     0
  1
*
  1
*
  0
XRECORD
  5
14
102
{ACAD_REACTORS
330
12
102
}
330
12
100
AcDbXrecord
280
     1
  1
-2
  1
-2*
  1
*
  1
*
 70
     0
  1
*
  1
*
  0
XRECORD
  5
15
102
{ACAD_REACTORS
330
12
102
}
330
12
100
AcDbXrecord
280
     1
  1
-3
  1
-3*
  1
*
  1
*
 70
     0
  1
*
  1
*
  0
XRECORD
  5
16
102
{ACAD_REACTORS
330
12
102
}
330
12
100
AcDbXrecord
280
     1
  1
-3.45
  1
-3.45*
  1
*
  1
*
 70
     0
  1
*
  1
*
  0
XRECORD
  5
17
102
{ACAD_REACTORS
330
12
102
}
330
12
100
AcDbXrecord
280
     1
  1
-4
  1
-4*
  1
*
  1
*
 70
     0
  1
*
  1
*
  0
XRECORD
  5
18
102
{ACAD_REACTORS
330
12
102
}
330
12
100
AcDbXrecord
280
     1
  1
-5
  1
-5*
  1
*
  1
*
 70
     0
  1
*
  1
*
  0
XRECORD
  5
19
102
{ACAD_REACTORS
330
12
102
}
330
12
100
AcDbXrecord
280
     1
  1
-6
  1
-6*
  1
*
  1
*
 70
     0
  1
*
  1
*
  0
XRECORD
  5
1A
102
{ACAD_REACTORS
330
12
102
}
330
12
100
AcDbXrecord
280
     1
  1
0 Общие
  1
0_*
  1
*
  1
*
 70
     0
  1
*
  1
*
  0
XRECORD
  5
1B
102
{ACAD_REACTORS
330
12
102
}
330
12
100
AcDbXrecord
280
     1
  1
0-
  1
*0-*
  1
*
  1
*
 70
     0
  1
*
  1
*
  0
XRECORD
  5
1C
102
{ACAD_REACTORS
330
12
102
}
330
12
100
AcDbXrecord
280
     1
  1
00
  1
00*
  1
*
  1
*
 70
     0
  1
*
  1
*
  0
XRECORD
  5
1D
102
{ACAD_REACTORS
330
12
102
}
330
12
100
AcDbXrecord
280
     1
  1
00 Этаж
  1
00*
  1
*
  1
*
 70
     0
  1
*
  1
*
  0
XRECORD
  5
1E
102
{ACAD_REACTORS
330
12
102
}
330
12
100
AcDbXrecord
280
     1
  1
0_3D_Oll
  1
0*3D
  1
*
  1
*
 70
     0
  1
*
  1
*
  0
XRECORD
  5
1F
102
{ACAD_REACTORS
330
12
102
}
330
12
100
AcDbXrecord
280
     1
  1
0H
  1
0H*
  1
*
  1
*
 70
     0
  1
*
  1
*
  0
XRECORD
  5
20
102
{ACAD_REACTORS
330
12
102
}
330
12
100
AcDbXrecord
280
     1
  1
1
  1
*
  1
4
  1
*
 70
     0
  1
*
  1
*
  0
XRECORD
  5
21
102
{ACAD_REACTORS
330
12
102
}
330
12
100
AcDbXrecord
280
     1
  1
1 Этаж
  1
1*
  1
*
  1
*
 70
     0
  1
*
  1
*
  0
XRECORD
  5
22
102
{ACAD_REACTORS
330
12
102
}
330
12
100
AcDbXrecord
280
     1
  1
1_3D_Oll
  1
1*3D
  1
*
  1
*
 70
     0
  1
*
  1
*
  0
XRECORD
  5
23
102
{ACAD_REACTORS
330
12
102
}
330
12
100
AcDbXrecord
280
     1
  1
2
  1
*
  1
5
  1
*
 70
     0
  1
*
  1
*
  0
XRECORD
  5
24
102
{ACAD_REACTORS
330
12
102
}
330
12
100
AcDbXrecord
280
     1
  1
2 Этаж
  1
2*
  1
*
  1
*
 70
     0
  1
*
  1
*
  0
XRECORD
  5
25
102
{ACAD_REACTORS
330
12
102
}
330
12
100
AcDbXrecord
280
     1
  1
210
  1
*
  1
210
  1
*
 70
     0
  1
*
  1
*
  0
XRECORD
  5
26
102
{ACAD_REACTORS
330
12
102
}
330
12
100
AcDbXrecord
280
     1
  1
2_3D_Oll
  1
2*3D
  1
*
  1
*
 70
     0
  1
*
  1
*
  0
XRECORD
  5
27
102
{ACAD_REACTORS
330
12
102
}
330
12
100
AcDbXrecord
280
     1
  1
3
  1
*
  1
6
  1
*
 70
     0
  1
*
  1
*
  0
XRECORD
  5
28
102
{ACAD_REACTORS
330
12
102
}
330
12
100
AcDbXrecord
280
     1
  1
3 Этаж
  1
3*
  1
*
  1
*
 70
     0
  1
*
  1
*
  0
XRECORD
  5
29
102
{ACAD_REACTORS
330
12
102
}
330
12
100
AcDbXrecord
280
     1
  1
3_3D_Oll
  1
3*3D
  1
*
  1
*
 70
     0
  1
*
  1
*
  0
XRECORD
  5
2A
102
{ACAD_REACTORS
330
12
102
}
330
12
100
AcDbXrecord
280
     1
  1
3D_All
  1
*3D*
  1
*
  1
*
 70
     0
  1
*
  1
*
  0
XRECORD
  5
2B
102
{ACAD_REACTORS
330
12
102
}
330
12
100
AcDbXrecord
280
     1
  1
4
  1
4*
  1
*
  1
*
 70
     0
  1
*
  1
*
  0
XRECORD
  5
2C
102
{ACAD_REACTORS
330
12
102
}
330
12
100
AcDbXrecord
280
     1
  1
4.2
  1
4.2*
  1
*
  1
*
 70
     0
  1
*
  1
*
  0
XRECORD
  5
2D
102
{ACAD_REACTORS
330
12
102
}
330
12
100
AcDbXrecord
280
     1
  1
5
  1
5*
  1
*
  1
*
 70
     0
  1
*
  1
*
  0
XRECORD
  5
2E
102
{ACAD_REACTORS
330
12
102
}
330
12
100
AcDbXrecord
280
     1
  1
6
  1
*
  1
5
  1
*
 70
     0
  1
*
  1
*
  0
XRECORD
  5
2F
102
{ACAD_REACTORS
330
12
102
}
330
12
100
AcDbXrecord
280
     1
  1
7
  1
7*
  1
*
  1
*
 70
     0
  1
*
  1
*
  0
XRECORD
  5
30
102
{ACAD_REACTORS
330
12
102
}
330
12
100
AcDbXrecord
280
     1
  1
7.5
  1
7.5*
  1
*
  1
*
 70
     0
  1
*
  1
*
  0
XRECORD
  5
31
102
{ACAD_REACTORS
330
12
102
}
330
12
100
AcDbXrecord
280
     1
  1
8
  1
8*
  1
*
  1
*
 70
     0
  1
*
  1
*
  0
XRECORD
  5
32
102
{ACAD_REACTORS
330
12
102
}
330
12
100
AcDbXrecord
280
     1
  1
9
  1
9*
  1
*
  1
*
 70
     0
  1
*
  1
*
  0
XRECORD
  5
33
102
{ACAD_REACTORS
330
12
102
}
330
12
100
AcDbXrecord
280
     1
  1
a
  1
*
  1
*
  1
*
 70
     0
  1
*
  1
*
  0
XRECORD
  5
34
102
{ACAD_REACTORS
330
12
102
}
330
12
100
AcDbXrecord
280
     1
  1
All Xref Independent Layers
  1
A*
  1
*
  1
*
 70
     0
  1
*
  1
*
  0
XRECORD
  5
35
102
{ACAD_REACTORS
330
12
102
}
330
12
100
AcDbXrecord
280
     1
  1
ANA1
  1
*
  1
103
  1
*
 70
     0
  1
*
  1
*
  0
XRECORD
  5
36
102
{ACAD_REACTORS
330
12
102
}
330
12
100
AcDbXrecord
280
     1
  1
Area_Oll
  1
*area*
  1
*
  1
*
 70
     0
  1
*
  1
*
  0
XRECORD
  5
37
102
{ACAD_REACTORS
330
12
102
}
330
12
100
AcDbXrecord
280
     1
  1
av
  1
av-*
  1
*
  1
*
 70
     0
  1
*
  1
*
  0
XRECORD
  5
38
102
{ACAD_REACTORS
330
12
102
}
330
12
100
AcDbXrecord
280
     1
  1
av-
  1
av-*
  1
*
  1
*
 70
     0
  1
*
  1
*
  0
XRECORD
  5
39
102
{ACAD_REACTORS
330
12
102
}
330
12
100
AcDbXrecord
280
     1
  1
av-shn
  1
*av-shn*
  1
*
  1
*
 70
     0
  1
*
  1
*
  0
XRECORD
  5
3A
102
{ACAD_REACTORS
330
12
102
}
330
12
100
AcDbXrecord
280
     1
  1
BOLLINI
  1
QUOTE
  1
*
  1
*
 70
     0
  1
*
  1
*
  0
XRECORD
  5
3B
102
{ACAD_REACTORS
330
12
102
}
330
12
100
AcDbXrecord
280
     1
  1
dim
  1
*Dim*
  1
*
  1
*
 70
     0
  1
*
  1
*
  0
XRECORD
  5
3C
102
{ACAD_REACTORS
330
12
102
}
330
12
100
AcDbXrecord
280
     1
  1
DOUN
  1
*DN
  1
*
  1
*
 70
     0
  1
*
  1
*
  0
XRECORD
  5
3D
102
{ACAD_REACTORS
330
12
102
}
330
12
100
AcDbXrecord
280
     1
  1
expl
  1
*expl
  1
*
  1
*
 70
     0
  1
*
  1
*
  0
XRECORD
  5
3E
102
{ACAD_REACTORS
330
12
102
}
330
12
100
AcDbXrecord
280
     1
  1
G1
  1
REKA20A|*
  1
103
  1
*
 70
     0
  1
*
  1
*
  0
XRECORD
  5
3F
102
{ACAD_REACTORS
330
12
102
}
330
12
100
AcDbXrecord
280
     1
  1
G2
  1
REKA20A|*
  1
7
  1
*
 70
     0
  1
*
  1
*
  0
XRECORD
  5
40
102
{ACAD_REACTORS
330
12
102
}
330
12
100
AcDbXrecord
280
     1
  1
G3
  1
REKA20A|B*
  1
*
  1
*
 70
     0
  1
*
  1
*
  0
XRECORD
  5
41
102
{ACAD_REACTORS
330
12
102
}
330
12
100
AcDbXrecord
280
     1
  1
GEO
  1
*GEO
  1
*
  1
*
 70
     0
  1
*
  1
*
  0
XRECORD
  5
42
102
{ACAD_REACTORS
330
12
102
}
330
12
100
AcDbXrecord
280
     1
  1
gvs
  1
*gvs*
  1
*
  1
*
 70
     0
  1
*
  1
*
  0
XRECORD
  5
43
102
{ACAD_REACTORS
330
12
102
}
330
12
100
AcDbXrecord
280
     1
  1
H
  1
*H*
  1
*
  1
*
 70
     0
  1
*
  1
*
  0
XRECORD
  5
44
102
{ACAD_REACTORS
330
12
102
}
330
12
100
AcDbXrecord
280
     1
  1
hag
  1
*
  1
240
  1
*
 70
     0
  1
*
  1
*
  0
XRECORD
  5
45
102
{ACAD_REACTORS
330
12
102
}
330
12
100
AcDbXrecord
280
     1
  1
INVISIBLE
  1
*INVI*
  1
*
  1
*
 70
     0
  1
*
  1
*
  0
XRECORD
  5
46
102
{ACAD_REACTORS
330
12
102
}
330
12
100
AcDbXrecord
280
     1
  1
IRON
  1
*IRON*
  1
*
  1
*
 70
     0
  1
*
  1
*
  0
XRECORD
  5
47
102
{ACAD_REACTORS
330
12
102
}
330
12
100
AcDbXrecord
280
     1
  1
IRON-Layers
  1
*IRON*
  1
*
  1
*
 70
     0
  1
*
  1
*
  0
XRECORD
  5
48
102
{ACAD_REACTORS
330
12
102
}
330
12
100
AcDbXrecord
280
     1
  1
K2
  1
KST-K*
  1
*
  1
*
 70
     0
  1
*
  1
*
  0
XRECORD
  5
49
102
{ACAD_REACTORS
330
12
102
}
330
12
100
AcDbXrecord
280
     1
  1
KI
  1
ST-K*
  1
*
  1
*
 70
     0
  1
*
  1
*
  0
XRECORD
  5
4A
102
{ACAD_REACTORS
330
12
102
}
330
12
100
AcDbXrecord
280
     1
  1
kk
  1
*500*
  1
*
  1
*
 70
     0
  1
*
  1
*
  0
XRECORD
  5
4B
102
{ACAD_REACTORS
330
12
102
}
330
12
100
AcDbXrecord
280
     1
  1
kol
  1
*kol*
  1
*
  1
*
 70
     0
  1
*
  1
*
  0
XRECORD
  5
4C
102
{ACAD_REACTORS
330
12
102
}
330
12
100
AcDbXrecord
280
     1
  1
KOORD
  1
KO*
  1
*
  1
*
 70
     0
  1
*
  1
*
  0
XRECORD
  5
4D
102
{ACAD_REACTORS
330
12
102
}
330
12
100
AcDbXrecord
280
     1
  1
kr
  1
kr*
  1
*
  1
*
 70
     0
  1
*
  1
*
  0
XRECORD
  5
4E
102
{ACAD_REACTORS
330
12
102
}
330
12
100
AcDbXrecord
280
     1
  1
KSTFOPL1
  1
KSTFOPL1*
  1
*
  1
*
 70
     0
  1
*
  1
*
  0
XRECORD
  5
4F
102
{ACAD_REACTORS
330
12
102
}
330
12
100
AcDbXrecord
280
     1
  1
mk-
  1
*mk*
  1
*
  1
*
 70
     0
  1
*
  1
*
  0
XRECORD
  5
50
102
{ACAD_REACTORS
330
12
102
}
330
12
100
AcDbXrecord
280
     1
  1
off
  1
*
  1
*
  1
*
 70
     3
  1
*
  1
*
  0
XRECORD
  5
51
102
{ACAD_REACTORS
330
12
102
}
330
12
100
AcDbXrecord
280
     1
  1
on
  1
*
  1
*
  1
*
 70
     1
  1
*
  1
*
  0
XRECORD
  5
52
102
{ACAD_REACTORS
330
12
102
}
330
12
100
AcDbXrecord
280
     1
  1
ONLY ONN
  1
*
  1
*
  1
*
 70
     1
  1
*
  1
*
  0
XRECORD
  5
53
102
{ACAD_REACTORS
330
12
102
}
330
12
100
AcDbXrecord
280
     1
  1
PB
  1
PB*
  1
*
  1
*
 70
     0
  1
*
  1
*
  0
XRECORD
  5
54
102
{ACAD_REACTORS
330
12
102
}
330
12
100
AcDbXrecord
280
     1
  1
PB-LAYERS
  1
PB*
  1
*
  1
*
 70
     0
  1
*
  1
*
  0
XRECORD
  5
55
102
{ACAD_REACTORS
330
12
102
}
330
12
100
AcDbXrecord
280
     1
  1
pl-cok-et
  1
*
  1
*
  1
*
 70
     1
  1
*
  1
*
  0
XRECORD
  5
56
102
{ACAD_REACTORS
330
12
102
}
330
12
100
AcDbXrecord
280
     1
  1
PRIMO
  1
*NASCOSTA
  1
*
  1
*
 70
     0
  1
*
  1
*
  0
XRECORD
  5
57
102
{ACAD_REACTORS
330
12
102
}
330
12
100
AcDbXrecord
280
     1
  1
qq
  1
*ф-*
  1
*
  1
*
 70
     0
  1
*
  1
*
  0
XRECORD
  5
58
102
{ACAD_REACTORS
330
12
102
}
330
12
100
AcDbXrecord
280
     1
  1
quote
  1
quote
  1
*
  1
*
 70
     0
  1
*
  1
*
  0
XRECORD
  5
59
102
{ACAD_REACTORS
330
12
102
}
330
12
100
AcDbXrecord
280
     1
  1
r-mk
  1
*r-mk*
  1
*
  1
*
 70
     0
  1
*
  1
*
  0
XRECORD
  5
5A
102
{ACAD_REACTORS
330
12
102
}
330
12
100
AcDbXrecord
280
     1
  1
Roof
  1
*oof*
  1
*
  1
*
 70
     0
  1
*
  1
*
  0
XRECORD
  5
5B
102
{ACAD_REACTORS
330
12
102
}
330
12
100
AcDbXrecord
280
     1
  1
Roof_2_3+3D
  1
*oof*
  1
*
  1
*
 70
     0
  1
*
  1
*
  0
XRECORD
  5
5C
102
{ACAD_REACTORS
330
12
102
}
330
12
100
AcDbXrecord
280
     1
  1
Roof_3D
  1
*oof_3*
  1
*
  1
*
 70
     0
  1
*
  1
*
  0
XRECORD
  5
5D
102
{ACAD_REACTORS
330
12
102
}
330
12
100
AcDbXrecord
280
     1
  1
Roof_Oll
  1
*oof*
  1
*
  1
*
 70
     0
  1
*
  1
*
  0
XRECORD
  5
5E
102
{ACAD_REACTORS
330
12
102
}
330
12
100
AcDbXrecord
280
     1
  1
s
  1
*s
  1
*
  1
*
 70
     0
  1
*
  1
*
  0
XRECORD
  5
5F
102
{ACAD_REACTORS
330
12
102
}
330
12
100
AcDbXrecord
280
     1
  1
SERV
  1
*SERV
  1
*
  1
*
 70
     0
  1
*
  1
*
  0
XRECORD
  5
60
102
{ACAD_REACTORS
330
12
102
}
330
12
100
AcDbXrecord
280
     1
  1
Sow frozen layers
  1
*
  1
*
  1
*
 70
     4
  1
*
  1
*
  0
XRECORD
  5
61
102
{ACAD_REACTORS
330
12
102
}
330
12
100
AcDbXrecord
280
     1
  1
Sow on layers
  1
*
  1
*
  1
*
 70
     1
  1
*
  1
*
  0
XRECORD
  5
62
102
{ACAD_REACTORS
330
12
102
}
330
12
100
AcDbXrecord
280
     1
  1
ST
  1
ST*
  1
*
  1
*
 70
     0
  1
*
  1
*
  0
XRECORD
  5
63
102
{ACAD_REACTORS
330
12
102
}
330
12
100
AcDbXrecord
280
     1
  1
tabl
  1
*tabl
  1
*
  1
*
 70
     0
  1
*
  1
*
  0
XRECORD
  5
64
102
{ACAD_REACTORS
330
12
102
}
330
12
100
AcDbXrecord
280
     1
  1
Test1
  1
*
  1
blue
  1
*
 70
     0
  1
*
  1
*
  0
XRECORD
  5
65
102
{ACAD_REACTORS
330
12
102
}
330
12
100
AcDbXrecord
280
     1
  1
text
  1
*text
  1
*
  1
*
 70
     0
  1
*
  1
*
  0
XRECORD
  5
66
102
{ACAD_REACTORS
330
12
102
}
330
12
100
AcDbXrecord
280
     1
  1
TOP
  1
*TOP
  1
*
  1
*
 70
     0
  1
*
  1
*
  0
XRECORD
  5
67
102
{ACAD_REACTORS
330
12
102
}
330
12
100
AcDbXrecord
280
     1
  1
wall
  1
*wall
  1
*
  1
*
 70
     0
  1
*
  1
*
  0
XRECORD
  5
68
102
{ACAD_REACTORS
330
12
102
}
330
12
100
AcDbXrecord
280
     1
  1
wl
  1
*wl
  1
*
  1
*
 70
     0
  1
*
  1
*
  0
XRECORD
  5
69
102
{ACAD_REACTORS
330
12
102
}
330
12
100
AcDbXrecord
280
     1
  1
wl-
  1
*wl
  1
*
  1
*
 70
     0
  1
*
  1
*
  0
XRECORD
  5
6A
102
{ACAD_REACTORS
330
12
102
}
330
12
100
AcDbXrecord
280
     1
  1
X-ref
  1
*
  1
*
  1
*
 70
   768
  1
*
  1
*
  0
XRECORD
  5
6B
102
{ACAD_REACTORS
330
12
102
}
330
12
100
AcDbXrecord
280
     1
  1
Xref
  1
*
  1
*
  1
*
 70
   768
  1
*
  1
*
  0
XRECORD
  5
6C
102
{ACAD_REACTORS
330
12
102
}
330
12
100
AcDbXrecord
280
     1
  1
xref-1
  1
*
  1
*
  1
*
 70
  1024
  1
*
  1
*
  0
XRECORD
  5
6D
102
{ACAD_REACTORS
330
12
102
}
330
12
100
AcDbXrecord
280
     1
  1
Ботаника
  1
Зел*
  1
*
  1
*
 70
     0
  1
*
  1
*
  0
XRECORD
  5
6E
102
{ACAD_REACTORS
330
12
102
}
330
12
100
AcDbXrecord
280
     1
  1
Бут
  1
Бут*
  1
*
  1
*
 70
     0
  1
*
  1
*
  0
XRECORD
  5
6F
102
{ACAD_REACTORS
330
12
102
}
330
12
100
AcDbXrecord
280
     1
  1
Василий
  1
Вася*
  1
*
  1
*
 70
     0
  1
*
  1
*
  0
XRECORD
  5
70
102
{ACAD_REACTORS
330
12
102
}
330
12
100
AcDbXrecord
280
     1
  1
ВК
  1
*ВК*
  1
*
  1
*
 70
     0
  1
*
  1
*
  0
XRECORD
  5
71
102
{ACAD_REACTORS
330
12
102
}
330
12
100
AcDbXrecord
280
     1
  1
ВК_ОВ
  1
*В*
  1
*
  1
*
 70
     0
  1
*
  1
*
  0
XRECORD
  5
72
102
{ACAD_REACTORS
330
12
102
}
330
12
100
AcDbXrecord
280
     1
  1
Галина
  1
Г*
  1
*
  1
*
 70
     0
  1
*
  1
*
  0
XRECORD
  5
73
102
{ACAD_REACTORS
330
12
102
}
330
12
100
AcDbXrecord
280
     1
  1
Капитальн и Малые
  1
Кап*
  1
*
  1
*
 70
     0
  1
*
  1
*
  0
XRECORD
  5
74
102
{ACAD_REACTORS
330
12
102
}
330
12
100
AcDbXrecord
280
     1
  1
Лестницы Все
  1
*Лес*
  1
*
  1
*
 70
     0
  1
*
  1
*
  0
XRECORD
  5
75
102
{ACAD_REACTORS
330
12
102
}
330
12
100
AcDbXrecord
280
     1
  1
Лестницы_3D
  1
*ест_3D*
  1
*
  1
*
 70
     0
  1
*
  1
*
  0
XRECORD
  5
76
102
{ACAD_REACTORS
330
12
102
}
330
12
100
AcDbXrecord
280
     1
  1
Мебель
  1
*Меб*
  1
*
  1
*
 70
     0
  1
*
  1
*
  0
XRECORD
  5
77
102
{ACAD_REACTORS
330
12
102
}
330
12
100
AcDbXrecord
280
     1
  1
Монолит
  1
*лит
  1
*
  1
*
 70
     0
  1
*
  1
*
  0
XRECORD
  5
78
102
{ACAD_REACTORS
330
12
102
}
330
12
100
AcDbXrecord
280
     1
  1
Монолит_3D
  1
*т_3D*
  1
*
  1
*
 70
     0
  1
*
  1
*
  0
XRECORD
  5
79
102
{ACAD_REACTORS
330
12
102
}
330
12
100
AcDbXrecord
280
     1
  1
ОВ
  1
*ОВ*
  1
*
  1
*
 70
     0
  1
*
  1
*
  0
XRECORD
  5
7A
102
{ACAD_REACTORS
330
12
102
}
330
12
100
AcDbXrecord
280
     1
  1
Окно_3D
  1
*но_3D*
  1
*
  1
*
 70
     0
  1
*
  1
*
  0
XRECORD
  5
7B
102
{ACAD_REACTORS
330
12
102
}
330
12
100
AcDbXrecord
280
     1
  1
Сети разные
  1
Сеть*
  1
*
  1
*
 70
     0
  1
*
  1
*
  0
XRECORD
  5
7C
102
{ACAD_REACTORS
330
12
102
}
330
12
100
AcDbXrecord
280
     1
  1
Столяр_Все
  1
*Сто*
  1
*
  1
*
 70
     0
  1
*
  1
*
  0
XRECORD
  5
7D
102
{ACAD_REACTORS
330
12
102
}
330
12
100
AcDbXrecord
280
     1
  1
Топос_Матвиенко
  1
Д_*
  1
*
  1
*
 70
     0
  1
*
  1
*
  0
XRECORD
  5
7E
102
{ACAD_REACTORS
330
12
102
}
330
12
100
AcDbXrecord
280
     1
  1
Топосъемка Ксюши
  1
К*
  1
*
  1
*
 70
     0
  1
*
  1
*
  0
XRECORD
  5
7F
102
{ACAD_REACTORS
330
12
102
}
330
12
100
AcDbXrecord
280
     1
  1
Топосъемка Сингеос
  1
К*
  1
*
  1
*
 70
     0
  1
*
  1
*
  0
XRECORD
  5
80
102
{ACAD_REACTORS
330
12
102
}
330
12
100
AcDbXrecord
280
     1
  1
Топосъемка ФундПроект
  1
Ф*
  1
*
  1
*
 70
     0
  1
*
  1
*
  0
XRECORD
  5
81
102
{ACAD_REACTORS
330
12
102
}
330
12
100
AcDbXrecord
280
     1
  1
ф
  1
*
  1
*
  1
*
 70
     1
  1
*
  1
*
  0
XRECORD
  5
82
102
{ACAD_REACTORS
330
12
102
}
330
12
100
AcDbXrecord
280
     1
  1
электрика
  1
*элек*
  1
*
  1
*
 70
     0
  1
*
  1
*
  0
DICTIONARY
  5
3FF
330
A
100
AcDbDictionary
280
     1
281
     1
  3
ACAD_XREC_ROUNDTRIP
360
400
  0
DICTIONARY
  5
401
330
F
100
AcDbDictionary
280
     1
281
     1
  3
ACAD_XREC_ROUNDTRIP
360
402
  0
XRECORD
  5
400
102
{ACAD_REACTORS
330
3FF
102
}
330
3FF
100
AcDbXrecord
280
     1
102
SHADEPLOT
 70
     0
102
SHADEPLOTRESLEVEL
 70
     2
102
SHADEPLOTCUSTOMDPI
 70
   300
  0
XRECORD
  5
402
102
{ACAD_REACTORS
330
401
102
}
330
401
100
AcDbXrecord
280
     1
102
SHADEPLOT
 70
     0
102
SHADEPLOTRESLEVEL
 70
     2
102
SHADEPLOTCUSTOMDPI
 70
   300
  0
ENDSEC
  0
EOF
